Oops, an error
Loading. Please wait.

The Oracles On The Delphi Express tab

version 1
version 1

Whole song

8,393 views 1 this week
4 commentsread comments
1 2 3 4 5
x 5
add to favorites
×
Save as Personal and add changes to this tab that will be seen only by you. Learn more ›
×
You can save this tab as Personal to edit and correct it or add notes. All changes will be seen only by you. Learn more »
launch autoscroll
font size
0
reset
how to read this tab
guitar tuner
edit
Autoscroll
slow
fast
+/-
esc
set tempo
stop
-------------------------------------------------------------------------------
               The Oracles On the Delphi Express - The Dear Hunter
-------------------------------------------------------------------------------
Tabbed by: Tyler Gjersee

Tuning: Standard

So this song is mostly banjo and piano hits, which makes the chords weird.
I suggest playing power chords except for the Am and the chorus. If you
have any corrections or comments then please post them.


Riff 1
  (right guitar)                           (left guitar)
e|-----------------|-----------------|    |-----------------|-----------------|
B|-5---6-8---6-5---|-6-8---6-5-------|    |-----------------|-----------------|
G|-----------------|-----------------|    |-4---5-7---5-4---|-5-7---5-4-------|
D|-----------------|-----------------|    |-----------------|-----------------|
A|-----------------|-----------------|    |-----------------|-----------------|
E|-----------------|-----------------|    |-----------------|-----------------|

Riff 2
e|-5--4-5--------------|---------------------|---------------------|---------------------|
B|-----------5--4-5----|---------------------|-----------5--6-8--4-|-5--4-5--------------|
G|---------------------|-5--4-5--------------|----5-4--5-----------|---------5----4-5--4-|
D|---------------------|---------7----6-5----|---------------------|---------------------|
A|---------------------|---------------------|-7-------------------|---------------------|
E|---------------------|---------------------|---------------------|---------------------|
   \ 3 /     \ 3 /       \ 3 /\ 3 /\ 3 /       \ 3 /\ 3 /\ 3 /\ 3 /  \ 3 /\ 3 /\ 3 /\ 3 /


Am                        F       E      D#
Stick with us, throw your morals out the door

E                 D           C              B     Am   
You aren't in the land of the river and the lake no more

Am                            F     E        D#
Makeshift schemes, we've got plenty here for you

E              D          C     B       Am
Lock away your dreams and throw away the key

Chorus:
F                                              Am (Riff 2)
You've been stuck in the middle of patience and animosity

F                                                    E          (Riff 1)
With a lust for solidity, and a cryptic history your luck's running thin


Repeat chords from here:


Crimson hands, brandish words which masquerade
If you flee from grace your souls can not be saved
Big steam ships, exits illustrate the flood
Don't be ashamed of your unlawful flaw

E              D             C        B          Am                  
When the bombs go off you'll know right where you are

You've been stuck in the middle of patience and animosity
With a lust for solidity, and a cryptic history your lucks running thin

Cool Bridge Part:
 Repeat 4X                                     
e|---------------------------------------------------------|
B|-------------------------------------6--5------5---------|
G|------------------------------------------7--5----5------|
D|----------------------------------------------------6--7-|
A|------------------------3--7-----------------------------|
E|-5-----0-3--0-3--5----5------5---------------------------|


e|--------------------------------------------|
B|--------------------------------------------|
G|--------------------------------------------|
D|-------------------2\1----------2-----------|
A|---------------------------3----------2-----|
E|------0-3--4-5------------------------------|

                                              Repeat 3X
E|--------------------------------------------------------|
B|--------------------------------------------------------|
G|-2-1-0------------------------------------------1-------|
D|-------4-3-2-0---3-2-0----------------------------------|
A|---------------3---------3-0-2-3-5-6-5-3-2-0-2-3--------|
E|--------------------------------------------------------|

                                                 Last Time
E|--------------------------------------------------------|
B|--------------------------------------------------------|
G|-2-1-0--------------------------------------------------|
D|-------4-3-2-0---3-2-0-------------------2--------------|
A|---------------3---------3-0-2-3-5-6--3----2--0---------|
E|--------------------------------------------------------|


The solo: Turn up the distortion and just play really fast on the Am scale

F                                               Am (Riff 3)
You've been stuck in the middle of patience and animosity

E|-----------------------------------|
B|-----------------------------------|
G|-2-1-0-----------------------------|
D|-------4-3-2-0---3-2-0-------------|
A|---------------3---------3-0-2-3-5-|
E|-----------------------------------|
(Kind of hard to hear)

F                                              E
With a lust for solidity, and a cryptic history your luck's running thin


I don’t have the full outro but it’s basically Church and the Dime so I’d
rather just tab out that song rather than figure out the end right now. 

            
            
Suggest correction
Creating personal tab
Creating personal tab
You can edit any tab online and save it as your Personal.

You can edit, replace or remove any tab part or add personal notes – all changes will be seen only by you.

Personal tabs can be accessed anytime from any device, even offline.
Learn more »
comments
print report bad tab
4 comments total. Showing first comments.
0 reply
asly45 30 Jul 29, 2009 06:15 PM

Really good tab! I played it along with the song.
The only part that sounds a bit off is Riff 2. Other than that, pretty good!

0 reply
jgsb2001 757 Aug 04, 2009 03:21 PM

Thanks Tyler! that is a darn good tab of a very cool song!

0 reply
Gugnums 173 Aug 05, 2009 12:31 PM

Ya the ending of riff two may be a bit off. I couldn't hear it too well but when i slowed the song down I think that it is somewhat close to what he plays. If it's not exact you can always chalk it up to artistic freedom anyway.

guest
You may want to rate the tab now too:
select rating
Wanna post a correction for this tab? Suggest correction