Oops, an error
Loading. Please wait.

The Revival Bass Tab

262 views 27 this week
no commentswrite comment
1 2 3 4 5
2 more votes to show rating
add to favorites
launch autoscroll
font size
0
reset
guitar tuner
Autoscroll
slow
fast
+/-
esc
set tempo
stop
Help us to improve Ultimate-Guitar.com Take our survey!
×
Author
Difficulty
Tuning
intermediate
D A D G B E
Song: The Revival
Artist: The Dear Hunter
Tabbed by: fender4string

Drop D Tuning


[Intro] (x2)

G|-------------------------------------------------------------------|
D|-------------------------------------------------------------------|
A|-------------------------------------------------------------------|
D|-2---/9---2-0-2--/12--9---0-1-2---/9---2-0-2---/9---2-0-2---/12--9-|

G|-----------------------------------------|
D|-----------------------------------------|
A|-----------------------------------------|
D|--7-9-10--9-10-9-5-7---5-7-9-7-5-4-5-1-2-|


[Verse]

G|----------------------------------------------------------------------------------|
D|----------------------------------------------------------------------------------|
A|----------------------------------------------6--6---6h7--7--5--5—3----3---2-0----|
D|-2---2---22--2----5---5---55--5---7--7--5—5h7----------------------------------5--|

G|-------------------------------------------------------------------------|
D|-------------------------------------------------------------------------|
A|-------0h2-------0h2--------3h5-------3h5-------------6--6—6h7--7--5--5--|
D|-2---2------2--2-------5--5------5--5-----7--7--5-5h7--------------------|


[Pre-Chorus]
“Isn’t she beautiful?...”

G|---------------------------------------------------------------------------------------|
D|----------------------2---------2--2-----------------------------2---------222---------|
A|--3---3---3---3--33-3-------------------------3---3---3---3-33-3-----------------------|
D|------------------------2---2----2--2---2---2----------------------2---2-------2--2--2-|

G|-----------------------------------------|
D|-----------------------------------------|
A|-0---0---0---0-00-0-2---2---2---2---2222-|
D|-----------------------------------------|


[Chorus] (x2)

G|-------------------------------------------------------------------|
D|-------------------------------------------------------------------|
A|-------------------------------------------------------------------|
D|-2---/9---2-0-2--/12--9---0-1-2---/9---2-0-2---/9---2-0-2---/12--9-|

G|--------------------------------------------------|
D|--------------------------------------------------|
A|--------------------------------------------------|
D|--7-9-10--7---5-7/9-7---7-9-10---5---7/8-7--5-7-9-|


[Bridge 1]
 **Note that I've added a bit more than what's recorded.  I've transcribed part of the orchestration
 here to make this part a bit more fun as, in the recording, the bass mostly just hangs on E.**

G|------------------------------------------------------|
D|------------------------------------------------------|
A|-------1-2-----------1-2----------1-2-----------1-2---|
D|-2---2--------2---2---------2---2---------2---2-------|

G|------------------------------------------------------|
D|------------------------------------------------------|
A|-------1-2-----------1-2----------1-2-----------------|
D|-2---2--------2---2---------2---2--------2---2--7-8-9-|


[Verse] (No variations)


[Pre-Chorus]

G|--------------------------------|
D|--------------------------------|
A|-3---3---3---3-33-3--3---3--333-|
D|--------------------------------|


[Chorus] (No Variations)


[Bridge 1]

G|------------------------------------------------------|
D|------------------------------------------------------|
A|--------1-2-----------1-2----------1-2-----------1-2--|
D|-2---2--------2---2---------2---2---------2---2-------|

G|----------------------------------------------------------------------|
D|----------------------------------------------------------------------|
A|--------1-2-----------1-2----------1-2-----------0-1-2---0------------|
D|-2---2--------2---2---------2---2--------2---2---------------5---4----|


[Bridge 2]

G|-------------------------------------------------------|
D|-------------------------------------------------------|
A|-------2---2------2---2------2---2-----------REST------|
D|-2---2------2---2------2---2------2--------------------|
 
 2x this phrase
G|--------------------------------------------------------------------------------------|
D|--------------------------------------------------------------------------------------|
A|-------2---2------2---2-1---1--------2---2--1--0---0-0---1-2---2-2-----------2---2----|
D|-2---2------2---2---------------4---4-------------------------------4---2---2------2--|

G|---------|-----------------------------------------------------------------|
D|---------|--------0-2------------------------------------0-2---------------|
A|-----0-2-|-3--2-3-----2---2-2----------------0-2-3---3-3------0---0-0---0--|
D|-2 4-----|---------------------4---2--2-2-4--------------------------------|

G|----------------------|
D|----------------------|
A|-2---2---2--22--22222-|
D|----------------------|


[Chorus] (No Variations)


[Outro]

G|-------------------------------------------------------|
D|-------------------------------------------------------|
A|-------------------------------------------------------|
D|-2---/9---2-0-2--/12--9---0-1-2---/9---2-0-2--/12--9---|

G|-------------------------------------------------------|
D|-------------------------------------------------------|
A|-------------------------0-1-2---0---------------------|
D|-2---/9---2-0-2--/12--9-------------5---4---2----------|



************************************

| h  Hammer-on
| /  Slide up

************************************
Suggest correction
Give kudos to tab author, rate the tab!
1 2 3 4 5
comments
print report bad tab
guest
You may want to rate the tab now too:
select rating
Wanna post a correction for this tab? Suggest correction