Oops, an error
Loading. Please wait.

This Beautiful Life bass

740 views 3 this week
no commentswrite comment
1 2 3 4 5
x 3
add to favorites
×
Save as Personal and add changes to this tab that will be seen only by you. Learn more ›
×
You can save this tab as Personal to edit and correct it or add notes. All changes will be seen only by you. Learn more »
launch autoscroll
font size
0
reset
guitar tuner
edit
Autoscroll
slow
fast
+/-
esc
set tempo
stop
Author
Difficulty
0:44-0:55

G|--------------------------------7--10--9---|
D|------777-555-444-3--2--777-555-5---------7|
A|5--7---------------------------------------|
E|-------------------------------------------|


0:58-1:21
"A back-town prophecy..."

G|--------------------------------------------------------|
D|--------------------0h1--0h1--1-0-----------------------|
A|----------------------------------4-3--2h3--2-3p2-1-0-0-|
E|3h5--3h5--3p2--1h2--------------------------------------|

 ------------------------------------------------------------------9|
 ------------------------4-3-2-1-1--0h1-1-1-0-----------------7-10--|
 ---------------------------------------------4-3-3------7-10-------|
 -3h5-5-5-4-3-2-2--1h2-2-----------------------------7h8------------|


1:22-1:36
"We took it all back..."

G|--------------------------7--10--9-----------------|
D|777-555-444-3--2--777-555-5---------777-555-444-3-2|
A|---------------------------------------------------|
E|---------------------------------------------------|


1:37-2:14
"And pretend that we're alive..."

G|--------------------------------------------------------------------------|
D|---2--0--3-2---3-3--3-3--3-3--3-3--5-5--5-5--5-5--5-5--0-0--0-0--0-0--0-0-|
A|3-------------------------------------------------------------------------|
E|--------------------------------------------------------------------------|

                        ---------------------------------------------------|
                        ---------------------------------------------------|
                        0-0-----------------------------------------------3|
                        -----3-3--2-2--2-2--1-1--1-1--3-3--3-3--3-3--3-3---|

Rest from 2:15-2:43


2:44-2:52
"A boy and his innocence...

G|--------|
D|--------| Slide from fret 3 to 7 very slowly.
A|--------|
E|3/7~~~~~|

Rest from 2:53-3:03

3:04-END
"Ba ba ba ba baaa ba ba baaa baaa baaa baaa..."

G||*-----------------------------------------------*||
D||*-----------------------------------------------*||
A||*------------------------------------5-5-5--8--7*||
E||*5-5-5-3-3-3-2-2-2-1--0--5-5-5-3-3-3------------*|| Play til the end.

            
            
Suggest correction
Creating personal tab
Creating personal tab
You can edit any tab online and save it as your Personal.

You can edit, replace or remove any tab part or add personal notes – all changes will be seen only by you.

Personal tabs can be accessed anytime from any device, even offline.
Learn more »
Give kudos to tab author, rate the tab!
1 2 3 4 5
comments
print report bad tab
guest
You may want to rate the tab now too:
select rating
Wanna post a correction for this tab? Suggest correction