Oops, an error
Loading. Please wait.

After The Bombs Tab

2,229 views 1 this week
no commentswrite comment
1 2 3 4 5
please rate
add to favorites
launch autoscroll
font size
0
reset
how to read this tab
guitar tuner
Tab Pro tools
  • play this tab
  • loop segment
  • change instrument
  • show fretboard
  • metronome
×
Best way to learn
"After The Bombs"
Autoscroll
slow
fast
+/-
esc
set tempo
stop
Contributor
Difficulty
intermediate
I went ahead and tabbed the organ for you to play on guitar. Sounds good.
Enjoy, please rate.

e----2---2--5--2--2--2--0-----2--0--0----2--0---------2---2--5--2-0-2-|
B----3---3--3-----3--------3--3-----3--3-3--3---------3---3--3------3-|
G----2---2--2-----4-----------2-----0----2--2--/4-2-0-2---2--2------4-|
D-0--0---0--0-----4-----------0-----0----0--0---------4---0--0------4-|
A-----------------2-----------------2-------------------------------2-|
E-----------------------------------3---------------------------------|

e-2--0-----0-----------0-3--2-0-2-------------------------------------|
B-------3--3--0--------1-0--3-3-3-------------------------------------|
G----------0-----0-2-3-0-0--2-2-2-------------------------------------|
D----------0-----------2-0--0-0-4-------------------------------------|
A----------2-----------3-2--------------------------------------------|
E----------3-------------3--------------------------------------------|

"And after the bombs..."
e-2--5--2--2--2--2--3--3--3----------2--2--5--2-0-2--2-0----3-3-3-33-3--2--|
B-3--3-----3-----3--0--0--0----------3--3--3------3------3--0-0-0-00-0--3--|
G-2--2-----4-----4--0--0--0--/4-2-0--2--2--2------4---------0-0-0-00-0--2--|
D-0--0-----4-----4--0--0--0----------0--0--0------4---------0-0-0-00-0--0--|
A----------2-----2--2--2--2-----------------------2---------2-2-2-22-2-----|
E-------------------3--3--3---------------------------------3-3-3-33-3-----|

"We meet in the streets..."
e-2--5--2-0-2--5--2--0--2-2-0-0--3--3-5-3-2----|
B-3--3------2-----------3-----2--3--3-3-3-3----|
G-2--2------2-----------4-----2--0--0-0-0-2----|
D-0--0------4-----------4-----2--0--0-0-0-0----|
A-----------------------2-----0--2--2-2-2------|
E--------------------------------3--3-3-3------|

"We grip at our hands..."
e-2--5--2-2--2-0----3-------3-|
B-3--3----3------3--3-------3-|
G-2--2----4---------0-------0-|
D-0--0----4---------0-------0-|
A---------2---------2-------2-|
E-------------------3--3--3---|

"After the bombs..."
e-3--3-3-0--0--0--0--2--2-2-0-2--|
B-3--3-3-0--0--2--2--3--3-3-3-3--|
G-0--0-0-0--0--2--2--2--2-2-2-2--|
D-0--0-0-2--2--2--2--0--0-0-0-4--|
A-2--2-2-2--2--0--0--------------|
E-3--3-2-0--0--------------------|

"And after the rockets calm..."
e-2--2--0--2--2--2--3--3-00-0-00-0--2--2--5--2-0-2--2-0----0-0-0-00-0--2--|
B-3--3-----3-----3--0--0-33-3-33-3--3--3--3------3------3--3-3-3-33-3--3--|
G-2--2-----4-----4--0--0-00-0-00-0--2--2--2------4---------0-0-0-00-0--2--|
D-0--0-----4-----4--0--0-00-0-00-0--0--0--0------4---------0-0-0-00-0--0--|
A----------2-----2--2--2-22-2-22-2---------------2---------2-2-2-22-2-----|
E-------------------3--3-33-3-33-3-------------------------3-3-3-33-3-----|

"We pinch at our skin..."
e-2--5--2-0-2--2-2--0--3--3-5-3-2----|
B-3--3------2--3----2--3--3-3-3-3----|
G-2--2------2--4----2--0--0-0-0-2----|
D-0--0------4--4----2--0--0-0-0-0----|
A--------------2----0--2--2-2-2------|
E----------------------3--3-3-3------|

"We forget all our trials..."
e-2--5--2-2--2-0----3-------3-|
B-3--3----3------3--3-------3-|
G-2--2----4---------0-------0-|
D-0--0----4---------0-------0-|
A---------2---------2-------2-|
E-------------------3--3--3---|

"After the bombs..."
e-3--3-3-0--0--0--0--2--2-2-0-2--|
B-3--3-3-0--0--2--2--3--3-3-3-3--|
G-0--0-0-0--0--2--2--2--2-2-2-2--|
D-0--0-0-2--2--2--2--0--0-0-0-4--|
A-2--2-2-2--2--0--0--------------|
E-3--3-2-0--0--------------------|

(regular strumming for this part)

D G D
then we'll go dancing
D G D
won't we go dancing
D G G/F# Em
yes we'll go dancing

A
'till it all
D
starts over again

Breakdown

D Bm G D Bm G D F#m Bm G A G D Bm G F#m A D

D G D
then we'll go dancing
D G D
yes we go dancing
D G G/F# Em
won't we'll go dancing

A D
'till it all
starts over again
comments
We did not receive enough feedback on this tab! Please rate:
print report bad tab
1 2 3 4 5
I want to post or [tab]
guest
You may want to rate the tab now too:
select rating
Please do not post tabs as comments. Select "correction" instead!