Oops, an error
Loading. Please wait.

Angel Wont You Call Me Bass Tab

538 views 1 this week
no commentswrite comment
1 2 3 4 5
please rate
add to favorites
launch autoscroll
font size
0
reset
guitar tuner
Tab Pro tools
  • play this tab
  • loop segment
  • change instrument
  • show fretboard
  • metronome
×
Best way to learn
"Angel Wont You Call Me"
Autoscroll
slow
fast
+/-
esc
set tempo
stop
Contributor
This is my first submission, I hope it's alright!

[first verse to second verse]
G --------------|
D --------------|
A -0-2-3-5-3----|
E 3-----------3-|

But I've been so unbridled…
G ----------------------------------------|
D ----------------------------------------|
A -0-2---------3--3-3--5--5-5--5--5-5-----|
E 3-----0--0-0----------------------------|

When I felt his breath…
G ---------------------------------|
D ---------------------------------|
A 4-4-4-4-4-4-4-4--2-2-2-2-2-------|
E ---------------------------------|

G --------------|
D --------------|
A -0-2-3-5-3----|
E 3-----------3-|

G ----------------------------------------|
D ----------------------------------------|
A -0-2---------3--3-3--5--5-5--5--5-5-----|
E 3-----0--0-0----------------------------|

G ---------------------------------|
D ---------------------------------|
A 4-4-4-4-4-4-4-4--2-2-2-2-2-------|
E ---------------------------------|

G --------------|
D --------------|
A 4-4-4---------|
E --------2-----|
comments
We did not receive enough feedback on this tab! Please rate:
print report bad tab
1 2 3 4 5
I want to post or [tab]
guest
You may want to rate the tab now too:
select rating
Please do not post tabs as comments. Select "correction" instead!