Oops, an error
Loading. Please wait.

Annan Water Bass Tab

1,695 views 1 this week
1 commentread comment
1 2 3 4 5
please rate
add to favorites
launch autoscroll
font size
0
reset
guitar tuner
Tab Pro tools
  • play this tab
  • loop segment
  • change instrument
  • show fretboard
  • metronome
×
Best way to learn
"Annan Water"
Autoscroll
slow
fast
+/-
esc
set tempo
stop
The Decemberists
Annan Water
Submitted by Cory Levitt 


Intro/verse
1:36
G|--------||.--------|--------|--------|--------.||
D|----2---|| --------|--------|--------|-------- || Repeat 3 times
A|------3-|| ------7-|8-----8-|10----7-|8---7-7- ||
E|--------||.5-------|--------|--------|--------.||


2:06
G|--------|--------|--------|--------|--------|--------|--------|
D|--------|--------|--------|--------|--------|--------|--------|
A|------7-|8-----8-|10----7-|8---7-7-|8-----8-|10----10|12------|
E|5-------|--------|--------|--------|--------|--------|--------|

G|--------|--------|--------|--------|
D|--------|--------|--------|--------|
A|8-----7-|8-----8-|10----10|12----7-|
E|--------|--------|--------|--------|


Bridge
2:32
  A        D        Dm       A        F#m      D        E        A        
G|--------|--------|--------|--------|--------|--------|--------|--------|
D|--------|--------|--------|--------|--------|--------|--------|--------|
A|--------|--------|--------|--------|--------|--------|--------|--------|
E|5-------|--------|--------|--------|--------|--------|--------|--------|

  A7       D        Dm       A        F#m      D        E           
G|--------|--------|--------|--------|--------|--------|--------|
D|--------|--------|--------|--------|--------|--------|--------|
A|--------|--------|--------|--------|--------|--------|--------|
E|--------|--------|--------|--------|--------|--------|--------|


Interlude
3:08
G|--------|--------|--------|--------|--------|--------|
D|--------|--------|--------|--------|--------|----2---|
A|--------|--------|--------|--------|--------|------3-|
E|--------|--------|5-------|--------|--------|--------|


G|--------|--------|--------|--------|
D|--------|--------|--------|----2---|
A|--------|--------|--------|------3-|
E|5-----3-|1-----1-|3-------|1-------|


Verse 2
3:34
G||.--------|--------|--------|--------.||
D|| --------|--------|--------|-------- || Repeat 3 times
A|| ------7-|8-----8-|10----7-|8---7-7- ||
E||.5-------|--------|--------|--------.||

4:02
G|--------|--------|--------|--------|--------|--------|--------|
D|--------|--------|--------|--------|--------|--------|--------|
A|------7-|8-----8-|10----7-|8---7-7-|8-----8-|10----10|12----7-|
E|5-------|--------|--------|--------|--------|--------|--------|

G|--------|--------|--------|--------|
D|--------|--------|--------|--------|
A|8-----7-|8-----8-|10----10|12----7-|
E|--------|--------|--------|--------|


Bridge
4:28
  A        D        Dm       A        F#m      D        E        A        
G|--------|--------|--------|--------|--------|--------|--------|--------|
D|--------|--------|--------|--------|--------|--------|--------|--------|
A|--------|--------|--------|--------|--------|--------|--------|--------|
E|5-------|--------|--------|--------|--------|--------|--------|--------|

  A7       D        Dm       A        F#m      D        E        E7       Dm
G|--------|--------|--------|--------|--------|--------|--------|--------|--------|
D|--------|--------|--------|--------|--------|--------|--------|--------|--------|
A|--------|--------|--------|--------|--------|--------|--------|--------|--------|
E|--------|--------|--------|--------|--------|--------|--------|--------|--------|
comments
We did not receive enough feedback on this tab! Please rate:
print report bad tab
1 2 3 4 5
1 comment total.
0 reply
CoryL397 wrote on April 7 2009, 06:33 pm

4:02
G|--------|--------|--------|--------|--------|--------|--------|
D|--------|--------|--------|--------|--------|--------|--------|
A|------7-|8-----8-|10----7-|8---7-7-|8-----8-|10----10|12----7-|
E|5-------|--------|--------|--------|--------|--------|--------|

G|--------|--------|--------|--------|
D|--------|--------|--------|--------|
A|8-------|8-----8-|10------|12----7-|
E|--------|--------|--------|--------|

I want to post or [tab]
guest
You may want to rate the tab now too:
select rating
Please do not post tabs as comments. Select "correction" instead!