Oops, an error
Loading. Please wait.

Annan Water chords

version 4
version 4

Whole song

284 views 6 this week
1 commentread comment
1 2 3 4 5
2 more votes to show rating
add to favorites
×
Save as Personal and add changes to this tab that will be seen only by you. Learn more ›
×
You can save this tab as Personal to edit and correct it or add notes. All changes will be seen only by you. Learn more »
launch autoscroll
font size
0
reset
transpose
0
reset
simplify chords
display chords
guitar tuner
edit
Autoscroll
slow
fast
+/-
esc
set tempo
stop
Author
Strumming
There is no strumming pattern for this song yet. and get +5 IQ
Annan Water
-----------

Chords:
    Am    Asus2/F Asus2/G Asus2/E    A       A7      D      Dm       E      F#m
E|---0---|---0---|---0---|---0---|---0---|---0---|---2---|---1---|---0---|---2---|
B|---1---|---0---|---0---|---0---|---2---|---2---|---3---|---3---|---0---|---2---|
G|---2---|---2---|---2---|---2---|---2---|---0---|---2---|---2---|---1---|---2---|
D|---2---|---2---|---2---|---2---|---2---|---2---|---0---|---0---|---2---|---4---|
A|---0---|-------|-------|-------|---0---|---0---|-------|-------|---2---|---4---|
E|-------|---1---|---3---|---0---|-------|-------|-------|-------|---0---|---2---|

Intro/Verse Progression:
   Am                                  Asus2/F
   1 + 2 + 3 + 4 +   1 + 2 + 3 + 4 +   1 + 2 + 3 + 4 +   1 + 2 + 3 + 4 +  
E|-----0-----0-0-0-|-----0-----0-0-0-|-----0-----0-0-0-|-----0-----0-0-0-|
B|-----1-----1-1-1-|-----1-----1-0-0-|-----0-----0-0-0-|-----0-----0-0-0-|
G|-----2-----2-2-2-|-----2-----2-2-2-|-----2-----2-2-2-|-----2-----2-2-2-|
D|-----2-----2-2-2-|-----2-----2-2-2-|-----2-----2-2-2-|-----2-----2-2-2-|
A|-0---------------|-0---------------|-----------------|-----------------|
E|-----------------|-----------------|-1---------------|-1---------------|

   Asus2/G                             Asus2/F           Asus2/E
   1 + 2 + 3 + 4 +   1 + 2 + 3 + 4 +   1 + 2 + 3 + 4 +   1 + 2 + 3 + 4 +  
E|-----0-----0-0-0-|-----0-----0-0-0-|-----0-----0-0-0-|-----0-0-----0-0-|
B|-----0-----0-0-0-|-----0-----0-0-0-|-----0-----0-0-0-|-----0-0-----0-0-|
G|-----2-----2-2-2-|-----2-----2-2-2-|-----2-----2-2-2-|-----2-2-----2-2-|
D|-----2-----2-2-2-|-----2-----2-2-2-|-----2-----2-2-2-|-----2-2-----2-2-|
A|-----------------|-----------------|-----------------|-----------------|
E|-3---------------|-3---------------|-1---------------|-0-------0-------|
  
-------
Verse 1
-------

Am        Asus2/F   Asus2/G          Asus2/F Asus2/E
    Annan water You loom so deep and wide

Am                Asus2/F Asus2/G            Asus2/F Asus2/E
    I would cross over If you would stem the tide

Am          Asus2/F           Asus2/G        Asus2/F Asus2/E
    Build a boat That I might ford the other side

Am               Asus2/F             Asus2/G      Asus2/F Asus2/E
    To reach the farther shore Where my true love lies in wait for 

Prechorus Progression:
   Asus2/F                             Asus/G
   1 + 2 + 3 + 4 +   1 + 2 + 3 + 4 +   1 + 2 + 3 + 4 +   1 + 2 + 3 + 4 +  
E|-----0-----0-0-0-|-0-0-0-0---0-0-0-|-----0-----0-0-0-|-0-0-0-0---0-0-0-|
B|-----0-----0-0-0-|-0-0-0-0---0-0-0-|-----0-----0-0-0-|-0-0-0-0---0-0-0-|
G|-----2-----2-2-2-|-2-2-2-2---2-2-2-|-----2-----2-2-2-|-2-2-2-2---2-2-2-|
D|-----2-----2-2-2-|-2-2-2-2---2-2-2-|-----2-----2-2-2-|-2-2-2-2---2-2-2-|
A|-----------------|-----------------|-----------------|-----------------|
E|-1---------------|-1-1-1-1---1-1-1-|-3---------------|-3-3-3-3---3-3-3-|
   me...                                              In wait for...

   Am                                  Asus2/F
   1 + 2 + 3 + 4 +   1 + 2 + 3 + 4 +   1 + 2 + 3 + 4 +   1 + 2 + 3 + 4 +  
E|-----0-----0-0-0-|-0---0-0---0-0-0-|-----0-----0-0-0-|-0-0-0-0---0-0-0-|
B|-----1-----1-1-1-|-1---1-1---1-1-1-|-----0-----0-0-0-|-0-0-0-0---0-0-0-|
G|-----2-----2-2-2-|-0h2-2-2---2-2-2-|-----2-----2-2-2-|-2-2-2-2---2-2-2-|
D|-----2-----2-2-2-|-0h2-2-2---2-2-2-|-----2-----2-2-2-|-2-2-2-2---2-2-2-|
A|-0---0-----0-0-0-|-0---0-0---0-0-0-|-----------------|-----------------|
E|-----------------|-----------------|-1---------------|-1-1-1-1---1-1-1-|
   me....                                             In wait for...

   Asus2/F                             Asus/G
   1 + 2 + 3 + 4 +   1 + 2 + 3 + 4 +   1 + 2 + 3 + 4 +   1 + 2 + 3 + 4 +  
E|-----0-----0-0-0-|-0-0-0-0---0-0-0-|-----0-----0-0-0-|-0-0-0-0---0-0-0-|
B|-----0-----0-0-0-|-0-0-0-0---0-0-0-|-----0-----0-0-0-|-0-0-0-0---0-0-0-|
G|-----2-----2-2-2-|-2-2-2-2---2-2-2-|-----2-----2-2-2-|-2-2-2-2---2-2-2-|
D|-----2-----2-2-2-|-2-2-2-2---2-2-2-|-----2-----2-2-2-|-2-2-2-2---2-2-2-|
A|-----------------|-----------------|-----------------|-----------------|
E|-1---------------|-1-1-1-1---1-1-1-|-3---------------|-3-3-3-3---3-3-3-|
   me....                                             In wait for...

   Am
   1 + 2 + 3 + 4 +   1 + 2 + 3 + 4 +   1 + 2 + 3 + 4 +   1 + 2 + 3 + 4 +  
E|-----0-----0-0-0-|-0---0-0---0-0-0-|-----0-----0-0-0-|-0-0-0-0---0-0-0-|
B|-----1-----1-1-1-|-1---1-1---1-1-1-|-----1-----1-1-1-|-1---1-1---1-1-0-|
G|-----2-----2-2-2-|-0h2-2-2---2-2-2-|-----2-----2-2-2-|-0h2-2-2---2-2-2-|
D|-----2-----2-2-2-|-0h2-2-2---2-2-2-|-----2-----2-2-2-|-0h2-2-2---2-2-2-|
A|-0---0-----0-0-0-|-0---0-0---0-0-0-|-0---0-----0-0-0-|-0---0-0---0-0-0-|
E|-----------------|-----------------|-----------------|-----------------|
   me....

-------
Verse 2
-------

Am           Asus2/F    Asus2/G       Asus2/F Asus2/E
    Oh, gray river Your waters ramble wide

Am             Asus2/F    Asus2/G          Asus2/F Asus2/E
    The horses shiver And bite against the bri  -  dle

Am             Asus2/F           Asus2/G              Asus2/F Asus2/E
    But I will cross If mine own horse is pulled from me

Am             Asus2/F           Asus2/G    Asus2/F   Asus2/E Asus2/F
     Though my mother cries that if I try I sure will drowned be

Asus2/G              Am
        Will drowned be

Asus2/F              Asus2/F
        Will drowned be

Asus2/G              Am      A
        Will drowned be

------
Chorus
------
           D     Dm              A     F#m
But if you calm       And let me pass

        D           E                 A     A7
You may render me a wreck When I come back

             D      Dm               A      F#m
So calm your waves      And slow the churn

            D                E             Am
And you may have my precious bones on my return

(Intro/Verse progression x2)

-------
Verse 3
-------
Am        Asus2/F  Asus2/G             Asus2/F Asus2/E
    Annan water Oh hear my true love's call

Am           Asus2/F Asus2/G           Asus2/F Asus2/E
    Hear her holler Above your water's pall

Am              Asus2/F           Asus2/G            Asus2/F Asus2/E
    God, that I could That my two arms could give me wing

Am              Asus2/F               Asus2/G         Asus2/F  Asus2/E Asus2/F
    And I would cross your breath And rest my breast about her amber   ring

Asus2/G           Am
        Her amber ring

Asus2/F           Asus2/F
        Her amber ring

Asus2/G           Am     A
        Her amber ring

------
Chorus
------
           D     Dm              A     F#m
But if you calm       And let me pass

        D           E                 A     A7
You may render me a wreck When I come back

             D      Dm               A      F#m
So calm your waves      And slow the churn

            D                E                         Dm
And you may have my precious bones on my... on my... return
Suggest correction
Creating personal tab
Creating personal tab
You can edit any tab online and save it as your Personal.

You can edit, replace or remove any tab part or add personal notes – all changes will be seen only by you.

Personal tabs can be accessed anytime from any device, even offline.
Learn more »
Give kudos to tab author, rate the tab!
1 2 3 4 5
comments
print report bad tab
1 comment total.
0 reply
avmetzger 285 Nov 07, 2015 11:38 AM

Thank you for posting an accurate tab for this fabulous song.

guest
You may want to rate the tab now too:
select rating
Wanna post a correction for this tab? Suggest correction