Oops, an error
Loading. Please wait.

As I Rise Tab

9,485 views 6 this week
3 commentsread comments
1 2 3 4 5
accurate
x 4
add to favorites
launch autoscroll
font size
0
reset
how to read this tab
guitar tuner
Tab Pro tools
  • play this tab
  • loop segment
  • change instrument
  • show fretboard
  • metronome
×
Best way to learn
"As I Rise"
Autoscroll
slow
fast
+/-
esc
set tempo
stop
Contributor
Difficulty
I updated this tab, it was added in a hurry, originally my guitar only had 5 strings and 
tuning was awful (all because of typos and me being scatterbrained), so I fixed it up. 
also fixed the solo part. Sorry! Rate it now!

E-----3-5-5-3-------3-----3-----5-3-5-0--------|
B-3h5---------3-3-5---3-5---3-5----------------|
G----------------------------------------------|
D----------------------------------------------|
A----------------------------------------------|
E----------------------------------------------|

D C

G
I have come a few miles.
G
I got blisters on my slippered feet
     D		C
As I rise, as I ri-ise.

G
California's ok.
G
But I think I might stay in the shade
	D	   C
For a while, for a whi-ile.


GGDC played over this:
E-----3-3---------3-----3-----5/7-5-3-------------|
B-3-5-----5-3-3-5---3-5---3-5---------5/7--7-6-5--|
G-------------------------------------------------|
D-------------------------------------------------|
A-------------------------------------------------|
E-------------------------------------------------|

G
Ladybird, ladybird
G
You're the prettiest song I heard
     D		 C
In a while, in a whi-ile.

G					     	   D	       C
La di dah, la dah, la di dah dah dah la dah, la la la, la dah dah-ah.
comments
print report bad tab
3 comments total.
-1 reply
systemrules wrote on November 9 2006, 11:00 pm

Your guitar has 5 strings, and a very strange tuning. And this tab is okay at best.

+2 reply
Mr. Salt wrote on June 24 2008, 03:50 am

Thanks systemrules...for making this guy feel bad.
What a jerk you are. Just because he doesn't have the proper equipment, at least he's making an effort. Why don't you tab it out for us, and then we can judge your skills. Before you do that, don't put others down. Kapeesh?

0 reply
Mr. Salt wrote on July 1 2008, 04:06 pm

The last part of the intro goes like this, in case anyone was wondering. The first part is still kind of off, but this is the last part of the intro.

E:-----3-----3-----7-3---5--
B:-3-5---3-5---3-5-----5----

I want to post or [tab]
guest
You may want to rate the tab now too:
select rating
Please do not post tabs as comments. Select "correction" instead!