Oops, an error
Loading. Please wait.

Blues Runs The Game Live Tab

1,974 views 3 this week
no commentswrite comment
1 2 3 4 5
excellent!
x 1
add to favorites
launch autoscroll
font size
0
reset
how to read this tab
guitar tuner
Tab Pro tools
  • play this tab
  • loop segment
  • change instrument
  • show fretboard
  • metronome
Autoscroll
slow
fast
+/-
esc
set tempo
stop
Capo 4th fret

     G                 Am/G
e:|-----------------|-----------------|-----------------|-----------------|
B:|-----0----0--h1--|---1---------1---|----1----1-------|---1---------1---|
G:|------------0h2--|------2--2-----2-|----2---------2--|------2--2-----2-|
D:|-----0-----------|-----------------|-----------0-----|-----------------|
A:|-----------------|-----------------|-----------------|-----------------|
E:|--3-----3--------|--3--------3-----|--3----3---------|--3---------3----|

     G   Am/G          G                   Am/G
e:|-----------------|------3----------|-----------------|--3--------------|
B:|----0h1---1------|-----------------|--0h1----1---1---|------------1----|
G:|---------------0-|----------0-0----|---h2------0-----|--------2--------|
D:|----0h2-----2----|-----------------|--0--------------|-----0--------0--|
A:|-----------------|-----------------|-----------------|-----------------|
E:|--3-----3--------|--3---3--------3-|------3-------3--|--3-------3------|

     G    Am/G         G              *  G                 C
e:|-----------------|----------3------|--3--------------|-----------------|
B:|-----0h1---1-----|-----0--------0--|------------0----|--1---------1----|
G:|-----------------|-----------------|--------0--------|--------0--------|
D:|-----0h2-----2p0-|-----0------0----|-----0--------0--|-----2--------2--|
A:|-----------------|-----------------|-----------------|--3-------3------|
E:|--3------3-------|--3-----3--------|--3-------3------|-----------------|

                                          Catch a boat to  England baby

     G                 C                 G                 C
e:|-----------------|-----------------|--3--------------|-----------------|
B:|--0---------0----|--1---------1----|------------0----|--1---------1----|
G:|--------0--------|--------0--------|--------0--------|-------0---------|
D:|-----0--------0--|-----2--------2--|-----0--------0--|-----2--------2--|
A:|-----------------|--3-------3------|-----------------|--3-------3------|
E:|--3-------3------|-----------------|--3-------3------|-----------------|

      maybe    to     Spain                wherever        I have gone

     G                 C                 G                 C              %
e:|-----------------|-----------------|-----------------|-----------------|
B:|--0---------0----|--1---------1----|--0---------0----|--1---------1----|
G:|--------0--------|--------0--------|--------0--------|-------0---------|
D:|-----0--------0--|-----2--------2--|-----0--------0--|-----2--------2--|
A:|-----------------|--3-------3------|-----------------|--3-------3------|
E:|--3-------3------|-----------------|--3-------3------|-----------------|

      wherever I've    been and   gone         wherever    I  have gone the

     D     C           G                 C/G
e:|-----------------|-----------------|-----------------|
B:|--3---------1----|-----0----0--h1--|----1-------1----|
G:|--------0--------|-----------------|--------0--------|
D:|-----4--------2--|-----0------0h2--|------2-------2--|
A:|--5-------3------|-----------------|-----------------|
E:|-----------------|--3-----3--------|--3-------3------|

    blues   run  the  game

This bridge is used after verses 1, 2, 4, and 5:

     G                 C/G
e:|--3--------------|-----------------|
B:|------------0----|--0h1--------1---|
G:|--------0--------|---------0-------|
D:|-----0--------0--|------2-------2--|
A:|-----------------|-----------------|
E:|--3-------3------|--3--------3-----|

                                        (return to * and repeat)

Alternate bridge used after verses 3 and 6:

     G                   Am/G            Am7/G             G   C/G
e:|--3--------------|-----------------|--3--------------|-----------------|
B:|------------0----|--0h1--------1---|------------1----|----0h1---1--p0--|
G:|--------0--------|---h2----2-------|--------2--------|-----------------|
D:|-----0--------0--|------0--------0-|-----0--------0--|----0h2-----2p0--|
A:|-----------------|-----------------|-----------------|-----------------|
E:|--3-------3------|--3--------3-----|--3-------3------|--3-----3--------|

     G
e:|------3----------|
B:|-----------------|
G:|-------------0---|
D:|----------0------|
A:|-----------------|
E:|--3---3--------3-|

                      (return to * and repeat)

% Ending (after 7th verse):

     D                      C            G                 C/G
e:|-----------------|--5--------------|--3--------------|-----------------|
B:|--3---------3----|------------1----|------------0----|--1---------1----|
G:|--------0--------|-------0---------|-------0---------|-------0---------|
D:|-----4--------4--|-----4--------2--|-----0--------0--|-----2--------2--|
A:|--5-------5------|--5------3-------|-----------------|-----------------|
E:|-----------------|-----------------|--3------3-------|--3------3-------|

    blues                  are all the  same

     G                 C/G               G                 Am/G
e:|-----------------|-----------------|-----------------|-----------------|
B:|--0---------0----|--1---------1----|--0---------0----|--0h1---1-----1--|
G:|--------0--------|-------0---------|--------0--------|----------2------|
D:|-----0--------0--|-----2--------2--|-----0--------0--|------0--------0-|
A:|-----------------|-----------------|-----------------|-----------------|
E:|--3-------3------|--3------3-------|--3-------3------|--3---------3----|

     Am7/G             G
e:|--3--------------|-----------------|-----------------|-----------------|
B:|------------1----|--0----0h1p0-0---|---0h1p0-0-------|---0h1p0-0-------|
G:|--------2--------|-----------------|-----------------|-----------------|
D:|-----0--------0--|-------0h2p0-0---|---0h2p0-0-------|---0h2p0-0-------|
A:|-----------------|-----------------|-----------------|-----------------|
E:|--3-------3------|--3--------------|-----------------|-------------3---|
comments
We did not receive enough feedback on this tab! Please rate:
print report bad tab
1 2 3 4 5
I want to post or [tab]
guest
You may want to rate the tab now too:
select rating
Please do not post tabs as comments. Select "correction" instead!