Oops, an error
Loading. Please wait.

I Dont Mind Tab

4,663 views 7 this week
4 commentsread comments
1 2 3 4 5
excellent!
x 5
add to favorites
launch autoscroll
font size
0
reset
how to read this tab
guitar tuner
Tab Pro tools
  • play this tab
  • loop segment
  • change instrument
  • show fretboard
  • metronome
×
Best way to learn
"I Dont Mind"
Autoscroll
slow
fast
+/-
esc
set tempo
stop
Contributor
Tuning
Capo
D A D G B E
2nd fret
song      : i don't mind
artist    : the decemberists
album     : 5 songs EP
tabbed by : oneshotnothing


drop D tuning
capo on 2nd fret
chords relative to capo


i'm not so sure about these chords, but then i'm not
so sure anyone's ever heard of this song. if you're looking
at this tab you probably have the song, so listen to it.

these are the chords i use and the general strumming pattern.
i'm not sure whether he changes chords on the first beat of
the measure, or on the off beat right before. i wrote the
latter, which is how i play it.

and i have no idea about the bridge. it sounds all right i guess.


intro/verse

e--|0---0-----0-0-0-|0---0-----0-0-0-|0---0-------0---|----0-----0-0-0-|
b--|3---3-----3-3-3-|3---3-----3-3-5-|5---5-------5---|----5-----5-5-5-|
g--|2---2-----2-2-2-|2---2-----2-2-3-|3---3-------3---|----3-----3-3-0-|
d--|0---0-----0-0-0-|0---0-----0-0-0-|0---0-------0---|----0-----0-0-0-|
a--|0---0-----0-0-x-|x---x-----x-x-x-|x---x-----------|----------x-x-x-|
D--|0---0-----0-0-4-|4---4-----4-4-5-|5---5-----------|----------5-5-5-|
    ^   ^   ^   ^   |^   ^   ^   ^   |^   ^   ^   ^   |^   ^   ^   ^   |
    1   2   3   4   |1   2   3   4   |1   2   3   4   |1   2   3   4   |


e--|0---0-----0-0-0-|0---0-----0-0-0-|0---0-------0---|----0-----0-0-0-|
b--|3---3-----3-3-3-|3---3-----3-3-5-|5---5-------5---|----5-----5-5-5-|
g--|2---2-----2-2-2-|2---2-----2-2-3-|3---3-------3---|----3-----3-3-0-|
d--|0---0-----0-0-0-|0---0-----0-0-0-|0---0-------0---|----0-----0-0-0-|
a--|0---0-----0-0-x-|x---x-----x-x-x-|x---x-----------|----------x-x-x-|
D--|0---0-----0-0-4-|4---4-----4-4-5-|5---5-----------|----------5-5-5-|
    ^   ^   ^   ^   |^   ^   ^   ^   |^   ^   ^   ^   |^   ^   ^   ^   |
    1   2   3   4   |1   2   3   4   |1   2   3   4   |1   2   3   4   |


chorus

e--|0-----2---0-----|0-----0---0-----|----------------|----------0-0-0-|
b--|0-----0---0---0-|2-----3---2---0-|3-3-3-3-3-3-3-3-|3-3-3-3-3-3-3-3-|
g--|0-----0---0---0-|2-----2---2---0-|4-4-4-4-4-4-4-4-|4-4-4-4-4-4-4-4-|
d--|2---------------|2-----2---2-----|4-4-4-4-4-4-4-4-|4-4-4-4-4-4-4-4-|
a--|2---------------|0---------------|2-2-2-2-2-2-2-2-|2-2-2-2-2-2-2-2-|
D--|2---------------|----------------|----------------|----------------|
    ^   ^   ^   ^   |^   ^   ^   ^   |^   ^   ^   ^   |^   ^   ^   ^   |
    1   2   3   4   |1   2   3   4   |1   2   3   4   |1   2   3   4   |


e--|0-----2---0-----|0-----0---0-----|------0---2-----|----------------|
b--|0-----0---0---0-|2-----3---2---0-|3-----3---3---0-|----------------|
g--|0-----0---0---0-|2-----2---2---0-|2-----2---2---0-|0-0-0-0-0-0-0-0-|
d--|2---------------|2-----2---2-----|0-----0---0-----|0-0-0-0-0-0-0-0-|
a--|2---------------|0---------------|0---------------|5-5-5-5-5-5-5-5-|
D--|2---------------|----------------|----------------|5-5-5-5-5-5-5-5-|
    ^   ^   ^   ^   |^   ^   ^   ^   |^   ^   ^   ^   |^   ^   ^   ^   |
    1   2   3   4   |1   2   3   4   |1   2   3   4   |1   2   3   4   |


e--|----------------|----------------|----------------|
b--|----------------|0-0-0-0-0-0-0-0-|2-2-2-2---2-2-2-|
g--|0-0-0-0-0-0-0-0-|0-0-0-0-0-0-0-0-|2-2-2-2---2-2-2-|
d--|0-0-0-0-0-0-0-0-|0-0-0-0-0-0-0-0-|2-2-2-2---2-2-2-|
a--|4-4-4-4-4-4-4-4-|5-5-5-5-5-5-5-5-|0-0-0-0---0-0-0-|
D--|5-5-5-5-5-5-5-5-|5-5-5-5-5-5-5-5-|----------------|
    ^   ^   ^   ^   |^   ^   ^   ^   |^   ^   ^   ^   |
    1   2   3   4   |1   2   3   4   |1   2   3   4   |


bridge

e--|0-0-0-0-0-0-0-0-|0-0-0-0-0-0-0-0-|0---------------|------------0---|
b--|3-3-3-3-3-3-3-3-|3-3-3-3-3-3-3-3-|5---------------|------------5---|
g--|2-2-2-2-2-2-2-2-|3-3-3-3-5-5-5-5-|3---------------|------------3---|
d--|0-0-0-0-0-0-0-0-|0-0-0-0-0-0-0-0-|0---------------|------------0---|
a--|----------------|----------------|----------------|----------------|
D--|----------------|----------------|----------------|----------------|
    ^   ^   ^   ^   |^   ^   ^   ^   |^   ^   ^   ^   |^   ^   ^   ^   |
    1   2   3   4   |1   2   3   4   |1   2   3   4   |1   2   3   4   |


e--|0-0-0-0-0-0-0-0-|0-0-0-0-0-0-0-0-|0---------------|------------0-0-|
b--|3-3-3-3-3-3-3-3-|3-3-3-3-3-3-3-3-|5---------------|------------5-5-|
g--|2-2-2-2-2-2-2-2-|3-3-3-3-5-5-5-5-|3---------------|------------3-3-|
d--|0-0-0-0-0-0-0-0-|0-0-0-0-0-0-0-0-|0---------------|------------0-0-|
a--|----------------|----------------|x---------------|----------------|
D--|----------------|----------------|5---------------|----------------|
    ^   ^   ^   ^   |^   ^   ^   ^   |^   ^   ^   ^   |^   ^   ^   ^   |
    1   2   3   4   |1   2   3   4   |1   2   3   4   |1   2   3   4   |


ending

e--|----------------|----5-5---5---0-|----0-0---0-0-0-|0---0-0---0-0-0-|0---
b--|3-----3---0---0-|0---0-0---0---0-|----3-3---3-3-0-|2---2-2---2-2-2-|3---
g--|4-----4---4---0-|0---0-0---0---0-|----4-4---4-4-0-|2---2-2---2-2-2-|2---
d--|4-----4---4---0-|0---0-0---0-----|----0-0---0-0-0-|2---2-2---2-2-2-|0---
a--|2-----2---2---0-|5---5-5---5-----|----5-5---5-5---|0---0-0---0-0-0-|0---
D--|----------------|5---5-5---5-----|----5-5---5-5---|----------------|0---
    ^   ^   ^   ^   |^   ^   ^   ^   |^   ^   ^   ^   |^   ^   ^   ^   |^
    1   2   3   4   |1   2   3   4   |1   2   3   4   |1   2   3   4   |1



song structure

intro
verse
chorus
intro
verse
chorus
intro
bridge
verse
chorus
ending
comments
print report bad tab
4 comments total. Showing first comments.
0 reply
therisingtide wrote on May 13 2007, 06:43 pm

don't doubt yourself, this is pretty much perfect

0 reply
Hankjwimbleton wrote on June 29 2007, 06:10 pm

I don't think Drop D is really necessary, but it's perfect otherwise

0 reply
multimediaspeak wrote on July 14 2010, 05:58 pm

^im pretty sure that drop d is necessary-- also very good tab

I want to post or [tab]
guest
You may want to rate the tab now too:
select rating
Please do not post tabs as comments. Select "correction" instead!