Oops, an error
Loading. Please wait.

July July Bass Tab

1,814 views 1 this week
no commentswrite comment
1 2 3 4 5
please rate
add to favorites
launch autoscroll
font size
0
reset
guitar tuner
Tab Pro tools
  • play this tab
  • loop segment
  • change instrument
  • show fretboard
  • metronome
×
Best way to learn
"July July"
Autoscroll
slow
fast
+/-
esc
set tempo
stop
Contributor
-------------------------------------------------------------------------------
		      JULY, JULY! - The Decemberists
-------------------------------------------------------------------------------


Tabbed By: Tyler
e-mail: tlczpf@umkc.edu

Tuning: E A D G


Intro:
G-----
D-----
A-----
E--0--


Verse:
G-------------------|
D----0-2-2-0--------|
A------------2-0-0--|
E-------------------|

"...and I say your uncle..."
G---------------------------------|
D----------0-2-2-----2-2-0--------|
A--0-2-2-----------2-------2-0-0--|
E---------------------------------|

G---------------------------------|
D----------0-2-2---0-2-2-4-2------|
A--0-2-2---------------------0-0--|
E---------------------------------|

G---------------------------------|
D----------0-2-2---0-2-2-0--------|
A--0-2-2-------------------2-0-0--|
E---------------------------------|

G---------------------------------|
D----------0-2-2---0-2-2-2-2-2----|
A--0-2-2--------------------------|
E---------------------------------|

Chorus:

"...and the water runs down the drain!"
G-----------------------------------------------------------------|
D--4-4-----4-4-----2-2-----2-2-----4-4------4-4-----2-2-----2-2---|
A------4-------4-------2-------2-------4--------4-------2-------2-|
E-----------------------------------------------------------------|

"what a lonely thing..."
G-------------------------------------------------------------------|
D----0-----0-0-----0-0-----0-0---0-2-2---0-2-2---0-2-2-2-2-4-2------|
A--0-----0-------0-------0-------------------------------------4-0--|
E-------------------------------------------------------------------|

"July, July, July"
G-----------------------------------------------------------|
D--------0-0---2-2---0-0-0----------0-0--0-2-2-2--2-0-0-----|
A--0-0---------------------2-0-0--0----------------------2--|
E-----------------------------------------------------------| x 2

G--------------------|
D--------0-0-0--2----|
A-0-0-0--------------|
E------------------0-|


Verse

Chorus:
G-----------------------------------------------------------------|
D--4-4-----4-4-----2-2-----2-2-----4-4------4-4-----2-2-----2-2---|
A------4-------4-------2-------2-------4--------4-------2-------2-|
E-----------------------------------------------------------------|

G-------------------------------------------------------------------|
D----0-----0-0-----0-0-----0-0---0-2-2---0-2-2---0-2-2-2-2-4-2------|
A--0-----0-------0-------0-------------------------------------4-0--|
E-------------------------------------------------------------------|

G------------------------------------------------------------|
D--------0-0---2-2---0-0-0----------0-0--0-2-2-2--2-0-0------|
A--0-0---------------------2-0-0--0----------------------2---|
E------------------------------------------------------------| x 2

G--------------------------------|
D---------0-0--0-2-2-2--2-0-0----|
A--0-0--0----------------------2-|
E--------------------------------|

G-----------------------------------------------------------|
D---------0-0--0-2-2-2-2-2-2-2-2-2-2-2-2-2-2-2-2-2-2-2-22---|
A--0-0--0-------------------------------------------------0-|
E-----------------------------------------------------------|
comments
We did not receive enough feedback on this tab! Please rate:
print report bad tab
1 2 3 4 5
I want to post or [tab]
guest
You may want to rate the tab now too:
select rating
Please do not post tabs as comments. Select "correction" instead!