Oops, an error
Loading. Please wait.

O Valencia Bass Tab

3,656 views 1 this week
no commentswrite comment
1 2 3 4 5
accurate
x 3
add to favorites
launch autoscroll
font size
0
reset
guitar tuner
Tab Pro tools
  • play this tab
  • loop segment
  • change instrument
  • show fretboard
  • metronome
×
Best way to learn
"O Valencia"
Autoscroll
slow
fast
+/-
esc
set tempo
stop
Contributor
Difficulty
intermediate
this is pretty accurate, but feel free to improve it

Verse: chord: C-C7-G x8

each verse has two halves,
rest the first half of the first verse
then come in at the end of "...my hands on my heart"

G|------------------------||---------------------||
D|-5533----------55555555-||.----------55555555-.||
A|-----5533333333---------||.--33333333---------.||
E|------------------------||---------------------||

bridge: chords: Am-F-Dm-G
("So wait for the stone on your window...")
G|----------------------------------------|
D|----123-------345-------123-------345---|
A|-0-------345-----------------345--------|
E|-------------------345------------------|


Chorus: (the "O, Valencia!")
chords: first chorus: C-Em-Am-F (x2) Dm-G
second chorus/end of song: C-Em-Am-F (x4) Dm-G-C

bridge to the chorus with:
G|----------|
D|-553322---|
A|-------55-|
E|----------|

   (C-Em-Am-F)                      (Dm-G)
G||--------------0-2-22-0--------||------------|
D||.------0-2-22----------3-320-.||-0-553322---|
A||.-3-33-----------------------.||---------55-|
E||------------------------------||------------|

for the second chorus/end of the song, replace the end part with
  (Dm-G-C)
G|--/5\---------------| (hold the 5 for a bit)
D|-0-----553322-------|
A|-------------553----| (let ring)
E|--------------------|

the layout is basically:
verse (rest)
verse
bridge
verse x2
bridge
chorus
verse x2
bridge
end chorus

the verse parts are the same, just with the scale in the middle (equivalent of where you 
in in the first verse), after "felt my caress on your skin" & "ran like a fool to my side"


and special thanks to whoever put the chords up
#2 - ntrueger@yahoo.com
comments
We did not receive enough feedback on this tab! Please rate:
print report bad tab
1 2 3 4 5
I want to post or [tab]
guest
You may want to rate the tab now too:
select rating
Please do not post tabs as comments. Select "correction" instead!