Oops, an error
Loading. Please wait.

Oceanside Tab

1,925 views 3 this week
3 commentsread comments
1 2 3 4 5
accurate
x 4
add to favorites
launch autoscroll
font size
0
reset
how to read this tab
guitar tuner
Tab Pro tools
  • play this tab
  • loop segment
  • change instrument
  • show fretboard
  • metronome
Autoscroll
slow
fast
+/-
esc
set tempo
stop
Contributor
Difficulty
novice
heres the solo biatch!!

e-------4-4-4-2-2-2---------4-4-4-2-2-2---------4-4-4-2-2-2----6/7-------|
b---5----------------5---2---------------5---2---------------5-----5-----|
g------------------------------------------------------------------------|
d------------------------------------------------------------------------|
a------------------------------------------------------------------------|
e------------------------------------------------------------------------|

e---5---2--4---------------------------------------|
b-----5--------------------------------------------|
g--------------------------------------------------|
d--------------------------------------------------|
a--------------------------------------------------|
e--------------------------------------------------|
comments
print report bad tab
3 comments total.
-1 reply
roper404 wrote on November 12 2005, 11:28 pm

this tab sucks balls did u even listen to the song while u tabbed it take my advice stop tabbing now koz ur shit at it

0 reply
petsounds wrote on January 4 2006, 11:51 am

its got a one small mistake, besides that its not so bad

0 reply
Johnny0290 wrote on April 19 2008, 02:17 pm

e-------4-4-4-2-2-2---------4-4-4-2-2-2---------4-4-4-2-2-2----6/7-------|
b---5----------------5---2---------------5---2---------------5-----5-5---|
g------------------------------------------------------------------------|
d------------------------------------------------------------------------|
a------------------------------------------------------------------------|
e------------------------------------------------------------------------|

e---5-----2-4--------------------------------------|
b-----5-5------------------------------------------|
g--------------------------------------------------|
d--------------------------------------------------|
a--------------------------------------------------|
e--------------------------------------------------|

I want to post or [tab]
guest
You may want to rate the tab now too:
select rating
Please do not post tabs as comments. Select "correction" instead!