Oops, an error
Loading. Please wait.

Odalisque Tab

5,487 views 6 this week
2 commentsread comments
1 2 3 4 5
please rate
add to favorites
launch autoscroll
font size
0
reset
how to read this tab
guitar tuner
Tab Pro tools
  • play this tab
  • loop segment
  • change instrument
  • show fretboard
  • metronome
×
Best way to learn
"Odalisque"
Autoscroll
slow
fast
+/-
esc
set tempo
stop
Contributor
Capo
4th fret
song      : odalisque
artist    : the decemberists
tabbed by : oneshotnothing


this version is more correct than my last version.


drop D tuning
capo on 4th fret
chords relative to capo


--------------------------------------------------------
slow part
--------------------------------------------------------

intro

e--|2-----0-----|------0-----|------0-----|------5-----|
b--|3-----3-----|------3-----|3-----3-3---|3-----3-3---|
g--|4-----------|------4-----|4-----4-4---|4-----4-4---|
d--|4-----------|4-----------|5-------5---|0-------0---|
a--|2-------0---|2-------0---|x-----------|x-----------|
D--|--------0---|2-----------|5-----------|5-----------|
    x   x   x   |x   x   x   |x   x   x   |x   x   x   |
    1   2   3   |1   2   3   |1   2   3   |1   2   3   |

e--|2-----0-----|------0-----|------0-----|5-----5-----|
b--|3-----3-----|------3-----|3-----3-3---|3-----3-3---|
g--|4-----------|------4-----|4-----4-4---|4-----4-4---|
d--|4-----------|4-----------|5-------5---|0-------0---|
a--|2-------0---|2-------0---|x-----------|x-----------|
D--|--------0---|2-----------|5-----------|5-----------|
    x   x   x   |x   x   x   |x   x   x   |x   x   x   |
    1   2   3   |1   2   3   |1   2   3   |1   2   3   |

verse

e--|2-----0-----|------0-----|------0-----|------5-----|
b--|3-----3-----|------3-----|3-----3-3---|3-----3-3---|
g--|4-----------|------4-----|4-----4-4---|4-----4-4---|
d--|4-----------|4-----------|5-------5---|0-------0---|
a--|2-------0---|2-------0---|x-----------|x-----------|
D--|--------0---|2-----------|5-----------|5-----------|
    x   x   x   |x   x   x   |x   x   x   |x   x   x   |
    1   2   3   |1   2   3   |1   2   3   |1   2   3   |

e--|2-----0-----|------0-----|------0-----|5-----5-----|
b--|3-----3-----|------3-----|3-----3-3---|3-----3-3---|
g--|4-----------|------4-----|4-----4-4---|4-----4-4---|
d--|4-----------|4-----------|5-------5---|0-------0---|
a--|2-------0---|2-------0---|x-----------|x-----------|
D--|--------0---|2-----------|5-----------|5-----------|
    x   x   x   |x   x   x   |x   x   x   |x   x   x   |
    1   2   3   |1   2   3   |1   2   3   |1   2   3   |

e--|------------|------------|2-----0-----|------0-----|
b--|2-----2-2---|2-----2-2---|3-----3-----|------3-----|
g--|2-----2-2---|2-----2-2---|4-----------|------4-----|
d--|2-------2---|0-------0---|4-----------|4-----------|
a--|4-------4---|4-------4---|2-------0---|2-------0---|
D--|4-----------|4-----------|--------0---|2-----------|
    x   x   x   |x   x   x   |x   x   x   |x   x   x   |
    1   2   3   |1   2   3   |1   2   3   |1   2   3   |

e--|------------|------------|
b--|2-----2-2---|2-----2-2---|
g--|2-----2-2---|2-----2-2---|
d--|2-------2---|0-------0---|
a--|4-------4---|4-------4---|
D--|4-----------|4-----------|
    x   x   x   |x   x   x   |
    1   2   3   |1   2   3   |


structure of slow part:

intro
verse
intro
verse
first half of intro

--------------------------------------------------------
fast part
--------------------------------------------------------

intro

e--|------------|------------|------------|------------|
b--|0-----0-0-0-|0-----0-0-0-|0-----0-0-0-|0---0---0---|
g--|0-----0-0-0-|0-----0-0-0-|0-----0-0-0-|0---0---0---|
d--|0-----0-0-0-|0-----0-0-0-|0-----0-0-0-|0---0---0---|
a--|2-----0-2-0-|2-----0-2-0-|2-----0-2-0-|2---5---5---|
D--|2-----0-2-0-|2-----0-2-0-|2-----0-2-0-|2---5---5---|
    x   x   x   |x   x   x   |x   x   x   |x   x   x   |
    1   2   3   |1   2   3   |1   2   3   |1   2   3   |

verse
e--|------------|------------|------------|------------|
b--|0-----0-0-0-|0-----0-0-0-|0-----0-0-0-|0---0---0---|
g--|0-----0-0-0-|0-----0-0-0-|0-----0-0-0-|0---0---0---|
d--|0-----0-0-0-|0-----0-0-0-|0-----0-0-0-|0---0---0---|
a--|2-----0-2-0-|2-----0-2-0-|2-----0-2-0-|2---5---5---|
D--|2-----0-2-0-|2-----0-2-0-|2-----0-2-0-|2---5---5---|
    x   x   x   |x   x   x   |x   x   x   |x   x   x   |
    1   2   3   |1   2   3   |1   2   3   |1   2   3   |

e--|------------|------------|------------|------------|
b--|0-----0-0-0-|0-----0-0-0-|0-----0-0-0-|0-----0-0-0-|
g--|0-----0-0-0-|0-----0-0-0-|0-----0-0-0-|0-----0-0-0-|
d--|0-----0-0-0-|0-----0-0-0-|0-----0-0-0-|0-----0-0-0-|
a--|2-----0-2-0-|2-----0-2-0-|5-----5-5-5-|5-----5-5-5-|
D--|2-----0-2-0-|2-----0-2-0-|5-----5-5-5-|5-----5-5-5-|
    x   x   x   |x   x   x   |x   x   x   |x   x   x   |
    1   2   3   |1   2   3   |1   2   3   |1   2   3   |

chorus

e--|2-----2-2-2-|2-----2-2-2-|2-----2-2-2-|2-----2-2-2-|
b--|3-----3-3-3-|3-----3-3-3-|0-----0-0-0-|0-----0-0-0-|
g--|2-----2-2-2-|2-----2-2-2-|2-----2-2-2-|2-----2-2-2-|
d--|0-----0-0-0-|0-----0-0-0-|1-----1-1-1-|1-----1-1-1-|
a--|0-----0-0-0-|0-----0-0-0-|2-----2-2-2-|2-----2-2-2-|
D--|0-----0-0-0-|0-----0-0-0-|x-----x-x-x-|x-----x-x-x-|
    x   x   x   |x   x   x   |x   x   x   |x   x   x   |
    1   2   3   |1   2   3   |1   2   3   |1   2   3   |

e--|0-----0-0-0-|0-----0-0-0-|0-----0-0-0-|0-----0-0-0-|
b--|0-----0-0-0-|0-----0-0-0-|1-----1-1-1-|1-----1-1-1-|
g--|0-----0-0-0-|0-----0-0-0-|2-----2-2-2-|2-----2-2-2-|
d--|2-----2-2-2-|2-----2-2-2-|2-----2-2-2-|2-----2-2-2-|
a--|2-----2-2-2-|2-----2-2-2-|0-----0-0-0-|0-----0-0-0-|
D--|2-----2-2-2-|2-----2-2-2-|------------|------------|
    x   x   x   |x   x   x   |x   x   x   |x   x   x   |
    1   2   3   |1   2   3   |1   2   3   |1   2   3   |

e--|0-----0-0-0-|0-----0-0-0-|0-----0-0-0-|0-----0-0-0-|
b--|1-----1-1-1-|3-----3-3-3-|1-----1-1-1-|1-----1-1-1-|
g--|2-----2-2-2-|2-----2-2-2-|0-----0-0-0-|0-----0-0-0-|
d--|2-----2-2-2-|0-----0-0-0-|2-----2-2-2-|2-----2-2-2-|
a--|0-----0-0-0-|------------|3-----3-3-3-|3-----3-3-3-|
D--|------------|------------|------------|------------|
    x   x   x   |x   x   x   |x   x   x   |x   x   x   |
    1   2   3   |1   2   3   |1   2   3   |1   2   3   |

e--|0-----0-0-0-|0-----0-0-0-|
b--|1-----1-1-1-|1-----1-1-1-|
g--|0-----0-0-0-|0-----0-0-0-|
d--|2-----2-2-2-|2-----2-2-2-|
a--|3-----3-3-3-|3-----3-3-3-|
D--|------------|------------|
    x   x   x   |x   x   x   |
    1   2   3   |1   2   3   |

bridge

     f# part           g part
e--|------------|   |------------|
b--|------------|   |------------|
g--|------------|   |------------|
d--|4-4-4-4-4---|   |5-5-5-5-5---|
a--|4-4-4-4-4---|   |5-5-5-5-5---|
D--|4-4-4-4-4---|   |5-5-5-5-5---|
    x   x   x   |    x   x   x   |
    1   2   3   |    1   2   3   |

     picking part 1 - (or, just strum the chords)
e--|------------|------------|------------|------------|
b--|------------|3-----------|------------|3-----------|
g--|--------4---|----4-------|--------4---|----4-------|
d--|----4-------|--------4---|----4-------|--------4---|
a--|2-----------|------------|1-----------|------------|
D--|------------|------------|------------|------------|
    x   x   x   |x   x   x   |x   x   x   |x   x   x   |
    1   2   3   |1   2   3   |1   2   3   |1   2   3   |

     picking part 2 - (or, just strum the chords)
e--|------------|------------|------------|----0-------|
b--|------------|3-----------|------------|3-------3---|
g--|--------4---|----4-------|--------4---|------------|
d--|----4-------|--------4---|----4-------|------------|
a--|------------|------------|------------|------------|
D--|2-----------|------------|3-----------|------------|
    x   x   x   |x   x   x   |x   x   x   |x   x   x   |
    1   2   3   |1   2   3   |1   2   3   |1   2   3   |


structure of fast part:

intro x2
verse
intro x2
verse
intro x2
chorus

intro x2
verse
intro x2
verse
intro x2
chorus

bridge f# part x16
bridge g  part x4
bridge f# part x12
bridge g  part x4
bridge f# part x4
bridge picking part 1
bridge f# part x4
bridge picking part 1
bridge picking part 2

chorus
intro x2
verse
end on em7
comments
We did not receive enough feedback on this tab! Please rate:
print report bad tab
1 2 3 4 5
2 comments total.
0 reply
iwrath wrote on December 13 2011, 08:04 pm

Great tab, thanks for posting this version. Lots of the chords have subtle changes, like moving the 1st finger on the 442222 to 440222 chord, good job with those.

0 reply
rainisaacs wrote on July 8 2015, 06:28 pm

AWESOME TAB!

The only thing I have to say is that the high E should be played on fret 3 instead of open in the last chord of the intro.

I want to post or [tab]
guest
You may want to rate the tab now too:
select rating
Please do not post tabs as comments. Select "correction" instead!