Oops, an error
Loading. Please wait.

Perfect Crime 2 bass

5,115 views 3 this week
1 commentread comment
1 2 3 4 5
1 last vote to show rating
add to favorites
×
Save as Personal and add changes to this tab that will be seen only by you. Learn more ›
×
You can save this tab as Personal to edit and correct it or add notes. All changes will be seen only by you. Learn more »
launch autoscroll
font size
0
reset
guitar tuner
edit
Autoscroll
slow
fast
+/-
esc
set tempo
stop
Author
Difficulty
Song: The Perfect Crime 2
Artist: Decemberists
Album: The Crane Wife

I'm 100% sure about this song.  You should listen to the song to get the rhythm down
but all the notes are here.  It's a little tricky to work out in the beginning, but it's a
fun bass part and sounds amazing.  Enjoy!

Verse:
G--------------------------|
D----2-----0-------0-2-----|
A------2-3-----2-3-----0-2-|
E--0---------0-------------|

Verse Note: The first A2 (B) in this line is flourished often, so give it 3 good, quick
in succession now and then.


Chorus:
G------0-2-0-------------------0-2-0---------------|
D------------0-2-0---0---------------0-2-0---0-----|
A--3-3-------------3---0-2-3-3-------------3---0-2-|
E--------------------------------------------------|

G--------------------------|
D----2-----0-------0-2-----|
A------2-3-----2-3-----0-2-|
E--0---------0-------------|

G--------------|
D----2-----0---|
A------2-3-----|
E--0---------0-|
(Stop quickly on this last note for a second, and then resume with the verse)

Chorus Note: Play the first line of the chorus as many times as needed, then proceed to
second line.  Sometimes you'll need to go back to the first line of the chorus again,
once each chorus is almost completely over, you'll continue to the third line before 
back to the verse.

Bridge:
G------0-------(2~)4-----|
D----2---------------4-0-|
A--3-----(3)-2-----------|
E------------------------|

G------0---------------|
D----2---------1-4-----|
A--3-----(3)-2-----(2)-|
E----------------------|

Bridge Note: Both of these lines are repeated in no specific order and the rhythm
stay constant, especially with the first three notes, so you'll have to really listen to the
to figure out when to play what.  The notes in () are notes that aren't always played 
with the rest of the line, and they also lead into the next note.  Also, when Colin
"our silent goodbyes", the verse line starts again on the word "goodbyes".

Ending:
G------------------|
D----2-----0-------|
A------2-3---------|
E--0---------0-0-0-|

Like I said, I'm positive this thing is correct.  However, humans do make errors, and if
find that I have made any, feel free to e-mail me at NarwhalSoup@ameritech.net and tell me.
Suggest correction
Creating personal tab
Creating personal tab
You can edit any tab online and save it as your Personal.

You can edit, replace or remove any tab part or add personal notes – all changes will be seen only by you.

Personal tabs can be accessed anytime from any device, even offline.
Learn more »
Give kudos to tab author, rate the tab!
1 2 3 4 5
comments
print report bad tab
1 comment total.
0 reply
Jordo141 483 Jan 09, 2013 11:24 AM

Verse missing an A

G----------------------------|
D----2-------0-------0-2-----|
A------0-2-3-----2-3-----0-2-|
E--0-----------0-------------|

guest
You may want to rate the tab now too:
select rating
Wanna post a correction for this tab? Suggest correction