Oops, an error
Loading. Please wait.

Red Right Ankle Tab

version 2
version 2

Whole song

Interactive

32,138 views 18 this week
6 commentsread comments
1 2 3 4 5
excellent!
x 20
add to favorites
launch autoscroll
font size
0
reset
how to read this tab
guitar tuner
Tab Pro tools
  • play this tab
  • loop segment
  • change instrument
  • show fretboard
  • metronome
×
Best way to learn
"Red Right Ankle"
Autoscroll
slow
fast
+/-
esc
set tempo
stop
Contributor
Difficulty
Capo
novice
5th fret
song      : red right ankle
artist    : the decemberists
tabbed by : oneshotnothing


capo on 5th fret
chords relative to capo


don't play the high strings all the time:
these are the chords, but he doesn't hit all
the notes on every strum
also, the strumming pattern isn't exact, so
just listen to the song to get it


intro

e--|--3---3-3-3-----3-3-----3-3---3---3-3-3-----3-3-----3-3-|
b--|--3---3-3-3-----3-3-----3-3---3---3-3-3-----3-3-----3-3-|
g--|--0---0-0-0-----0-0-----0-0---0---0-0-0-----0-0-----0-0-|
d--|--0---0-0-0-----0-0-----0-0---0---0-0-0-0h2-------------|
a--|--x-------------x-x-----x-x---2-----------------0h2-----|
E--|2-----------0h2-----0h2-----3---------------------------|


verse

e--|--3---3-3-3-----3-3-----3-3---3---3-3-3-----3-3-----3-3-|
b--|--3---3-3-3-----3-3-----3-3---3---3-3-3-----3-3-----3-3-|
g--|--0---0-0-0-----0-0-----0-0---0---0-0-0-----0-0-----0-0-|
d--|--0---0-0-0-----0-0-----0-0---0---0-0-0-----0-0-----0-0-|
a--|--x-------------x-x-----x-x---2---------0h2-----0h2-----|
E--|2-----------0h2-----0h2-----3---------------------------|


e--|--3---3-3-3-----3-3-----3-3---3---3-3-3-----3-3-----3-3-|
b--|--3---3-3-3-----3-3-----3-3---3---3-3-3-----3-3-----3-3-|
g--|--0---0-0-0-----0-0-----0-0---0---0-0-0-----0-0-----0-0-|
d--|--0---0-0-0-----0-0-----0-0---0---0-0-0-----0-0-0h2-0-0-|
a--|--x-------------x-x-----x-x---2---------0h2-------------|
E--|2-----------0h2-----0h2-----3---------------------------|


e--|--3---3-3-3-----3-3-----3-3---3---3-3-3-----3-3-----3-3-|
b--|--3---3-3-3-----3-3-----3-3---3---3-3-3-----3-3-----3-3-|
g--|--0---0-0-0-----0-0-----0-0---0---0-0-0-----0-0-----0-0-|
d--|--0---0-0-0-----0-0-----0-0---0---0-0-0-----0-0-0h2-0-0-|
a--|--x-------------x-x-----x-x---2---------0h2-------------|
E--|2-----------0h2-----0h2-----3---------------------------|


e--|--3---3-3-3-----3-3-----3-3---3---3-3-3-----3---3-3-3-3-|
b--|--3---3-3-3-----3-3-----3-3---3---3-3-3-----3---3-3-3-3-|
g--|--0---0-0-0-----0-0-----0-0---0---0-0-0-----0---0-0-0-0-|
d--|--0---0-0-0-----0-0-----0-0---0---0-0-0-0---0---0-0-0-0-|
a--|--x-------------x-x-----x-x---2-----------2-2-----------|
E--|2-----------0h2-----0h2-----3---------------------------|


chorus

e--|--3---3-3-3---3---3-3-3---0---0-0-0---0-0-0-|
b--|--3---3-3-3---3---3-3-3---2---2-2-2---2-2-2-|
g--|--0---0-0-0---0---0-0-0---2---2-2-2---2-2-2-|
d--|--2---2-2-2---2---2-2-2---2---2-2-2---2-2-2-|
a--|--2-----------2---------0-----------0-------|
E--|0-0---------0-0-----------------------------|


e--|--3---3-3-3---3---3-3-3---0---0-0-0-0-0-0-0-0--0-|
b--|--3---3-3-3---3---3-3-3---2---2-2-2-2-3-3-3-2--0-|
g--|--0---0-0-0---0---0-0-0---2---2-2-2-2-2-2-2-2--2-|
d--|--2---2-2-2---2---2-2-2---2---2-2-2-2-2-2-2-2--2-|
a--|--2-----------2---------0------------------------|
E--|0-0---------0-0----------------------------------|


e--|--3---3-3-3---3---3-3-3---0---0-0-0---0-0-0-|
b--|--3---3-3-3---3---3-3-3---2---2-2-2---2-2-2-|
g--|--0---0-0-0---0---0-0-0---2---2-2-2---2-2-2-|
d--|--2---2-2-2---2---2-2-2---2---2-2-2---2-2-2-|
a--|--2-----------2---------0-----------0-------|
E--|0-0---------0-0-----------------------------|


e--|--2---2-2-2---2---2-2-2---3---3-3-3---3-3---3-3-|
b--|--3---3-3-3---3---3-3-3---3---3-3-3---3-3---3-3-|
g--|--2---2-2-2---2---2-2-2---0---0-0-0---0-0---0-0-|
d--|0-0---------0-0-----------0---0-0-0---0-0---0-0-|
a--|--------------------------2---------------------|
E--|------------------------3-----------3-----2-----|


e--|--3---3-3-3---3---3-3-3---0---0-0-0---0-0-0-|
b--|--3---3-3-3---3---3-3-3---2---2-2-2---2-2-2-|
g--|--0---0-0-0---0---0-0-0---2---2-2-2---2-2-2-|
d--|--2---2-2-2---2---2-2-2---2---2-2-2---2-2-2-|
a--|--2-----------2---------0-----------0-------|
E--|0-0---------0-0-----------------------------|


ending

e--|--2---2-2-2---2-2---2-2---3---3-3-3---3-3---3-3-|
b--|--3---3-3-3---3-3---3-3---3---3-3-3---3-3---3-3-|
g--|--4---4-4-4---4-4---4-4---0---0-0-0---0-0---0-0-|
d--|--4---4-4-4---4-4---4-4---0---0-0-0---0-0---0-0-|
a--|2-----------2-----0-------2---------------------|
E--|------------------------3-----------3-----2-----|


e--|--3---3-3-3---3---3-3-3---0---0-0-0---0-0-0-2-|
b--|--3---3-3-3---3---3-3-3---2---2-2-2---2-2-2-3-|
g--|--0---0-0-0---0---0-0-0---2---2-2-2---2-2-2-2-|
d--|--2---2-2-2---2---2-2-2---2---2-2-2---2-2-2-0-|
a--|--2-----------2---------0-----------0---------|
E--|0-0---------0-0-------------------------------|

song structure:

intro x2
verse
chorus
intro x2
verse
chorus
intro x2
bridge (play the first two lines of the chorus once, then the intro twice)
verse
chorus
ending
comments
print report bad tab
6 comments total. Showing first comments.
+1 reply
mistaman wrote on March 18 2007, 09:38 pm

yeah man this sounds right on.

+1 reply
walidb123 wrote on December 26 2007, 05:04 pm

sweet tab dude.

+1 reply
tater salad wrote on January 12 2008, 09:10 pm

boooo ya!!!

I want to post or [tab]
guest
You may want to rate the tab now too:
select rating
Please do not post tabs as comments. Select "correction" instead!