Oops, an error
Loading. Please wait.

Tain Bass Tab

1,022 views 3 this week
1 commentread comment
1 2 3 4 5
please rate
add to favorites
launch autoscroll
font size
0
reset
guitar tuner
Tab Pro tools
  • play this tab
  • loop segment
  • change instrument
  • show fretboard
  • metronome
Autoscroll
slow
fast
+/-
esc
set tempo
stop
Difficulty
novice
Ok, Here is the bass tabs for the first two parts of the Tain.  This is teh first 
song I learned to play on my bass, so I know the first two parts pretty well...ok maybe not.

PART I

G----0-4-| 3-4-3-0-| ----0-4-| --7-8-9----|
D--2-----| ------- | --2-----| -----------|  (two times)
A--------| --------| --------| -----------|
E--------| --------| --------| -----------|


G----0-4-| 3-4-3-0-| ----0-2-4-|---9-7-9-|
D--2-----| ------- | --2-------|--2------|
A--------| --------| ----------|---------|
E--------| --------| ----------|---------|

G----0-4-| 3-4-3-0-| --------| -----------|
D--2-----| ------- | --2-----| -----------|
A--------| --------| --------| -----------|
E--------| --------| --------| -----------|


PLAY PART I (IN ITS ENTIRETY) TWICE.


NOTE: PART II IS TESTAMENT TO THE AWESOMETACULAR BASS SKILLS OF MR. NATE QUERY, AS IT IS 
16TH NOTES...TRANSLATION: ITS REALLY FAST.


PART II
G-------0-0--| --------0-0-|
D--2-2-2-----| --2-2-2 ----|
A------------| ------------|
E------------| ------------|


This part gets played until there is a break in the song, then it gets played again.


Musically yours,
TheAlve.
comments
We did not receive enough feedback on this tab! Please rate:
print report bad tab
1 2 3 4 5
1 comment total.
0 reply
Jordo141 wrote on July 2 2011, 07:35 pm

Maybe finish the tab?

Good so far.

I want to post or [tab]
guest
You may want to rate the tab now too:
select rating
Please do not post tabs as comments. Select "correction" instead!