Oops, an error
Loading. Please wait.

Tain Part 4 Tab

96 views 1 this week
no commentswrite comment
1 2 3 4 5
excellent!
x 1
add to favorites
launch autoscroll
font size
0
reset
how to read this tab
guitar tuner
Tab Pro tools
  • play this tab
  • loop segment
  • change instrument
  • show fretboard
  • metronome
Autoscroll
slow
fast
+/-
esc
set tempo
stop
Contributor
INTRO

e|------------------------------------------------|------------------------------------------------|
B|------------------------------------------------|------------------------------------------------|
G|--------6-------6---------------6---------------|---------6-------6---------------6--------------|
D|--------7-------7---------------7---------------|---------7-------7---------------7--------------|
A|9-----------------------8-----------------------|9-----------------------8-----------------------|
E|------------------------------------------------|------------------------------------------------|

e|------------------------------------------------|------------------------------------------------|
B|------------------------------------------------|------------------------------------------------|
G|--------6-------6-------6---7---6---------------|--------6-------6---------------6---------------|
D|--------7-------7---------------------7---------|--------7-------7---------------7---------------|
A|9-----------------------8-----------------------|9-----------------------8-----------------------|
E|------------------------------------------------|------------------------------------------------|

VERSE 1

e|------------------------------------------------|------------------------------------------------|
B|------------------------------------------------|------------------------------------------------|
G|--------6-------6---------------6-------6-------|--------6-------6---------------6-------6-------|
D|--------7-------7---------------7-------7-------|--------7-------7---------------7-------7-------|
A|9-----------------------8-----------------------|7-----------------------6-----------------------|
E|------------------------------------------------|------------------------------------------------|
Oh the wind            is      blowing,        it       hurts your    skin            as you

e|------------------------------------------------|-------------------------------------------|
B|------------------------------------------------|-------------------------------------------|
G|--------7-------7---------------7-------7-------|--------6-------6---------------6-------6--|
D|--------6-------6---------------6-------6-------|--------6-------6---------------6-------6--|
A|5-----------------------8-----------------------|4-----------------------4------------------|
E|------------------------------------------------|-------------------------------------------|
       Climb           up      hillside,                forest and     fen.

e|------------------------------------------------|------------------------------------------------|
B|------------------------------------------------|------------------------------------------------|
G|--------6-------6---------------6-------6-------|--------6-------6---------------6-------6-------|
D|--------7-------7---------------7-------7-------|--------7-------7---------------7-------7-------|
A|9-----------------------8-----------------------|7-----------------------6-----------------------|
E|------------------------------------------------|------------------------------------------------|
  Your arms full  of           lullabies,               orchids and     wine               your

e|------------------------------------------------|-------------------------------------------|
B|------------------------------------------------|-------------------------------------------|
G|--------7-------7---------------7-------7-------|--------6-------6---------------6-------6--|
D|--------6-------6---------------6-------6-------|--------6-------6---------------6-------6--|
A|5-----------------------8-----------------------|4-----------------------4------------------|
E|------------------------------------------------|-------------------------------------------|
      Memories                wrapped within           paper  and     twine.

CHORUS

e|------------------------------------------------|------------------------------------------------|
B|------------------------------------------------|------------------------------------------------|
G|--------4-------4---------------4-------4-------|--------4-------4---------------4-------4-------|
D|--------4-------4---------------4-------4-------|--------4-------4---------------4-------4-------|
A|------------------------------------------------|------------------------------------------------|
E|6-----------------------5-----------------------|4-----------------------3-----------------------|
   The room that you           lie in          is       dusty and     hard

e|------------------------------------------------|---------------------------|
B|------------------------------------------------|---------------------------|
G|--------6-------6---------------6-------6-------|--------6-------6----------|
D|--------7-------7---------------7-------7-------|--------7-------7----------|
A|9-----------------------8-----------------------|7-----------------------6--|
E|------------------------------------------------|---------------------------|
       Sleeping        soft    babies               on  piles of      yards

e|------------------------------------------------|------------------------------------------------|
B|------------------------------------------------|------------------------------------------------|
G|--------4-------4---------------4-------4-------|--------4-------4---------------4-------4-------|
D|--------4-------4---------------4-------4-------|--------4-------4---------------4-------4-------|
A|------------------------------------------------|------------------------------------------------|
E|6-----------------------5-----------------------|4-----------------------3-----------------------|
   Of gingham,                 taffeta,                 cotton and     silk

e|------------------------------------------------|---------------------------|
B|------------------------------------------------|---------------------------|
G|--------6-------6---------------6-------6-------|--------6-------6----------|
D|--------7-------7---------------7-------7-------|--------7-------7----------|
A|9-----------------------8-----------------------|7-----------------------6--|
E|------------------------------------------------|---------------------------|
  Your dry     hung -  ry      mouths cry           for                          your mother's milk

e|---------------------------------------------------------------------------------------|
B|---------------------------------------------------------------------------------------|
G|-----2---2-------2--------6---6-------6---------1---1-------1--------6---6---6---------|
D|---4---4---4---4--------7---7---7---7---------3---3---3---3----7---7---7---7-----------|(x2)
A|-5-----------5--------9-----------9---------4-----------4--------9-------------9-------|
E|---------------------------------------------------------------------------------------|

e|----------------------------------------------------------------------|
B|----------------------------------------------------------------------|
G|-----4---4-------4--------8---8--------8--------3---3-------3--4------|
D|---6---6---6---6--------9---9---9----9--------5---5---5---5------6----| (x2)
A|-7-----------7-------11-----------11--------6-----------6-------------|
E|----------------------------------------------------------------------|

e|---------------------------10-11-12-13-14-13-12-11-10----------------------------|
B|---------------11-12-13-14-----------------------------14-13-12-11---------------|
G|0--11-12-13-14-----------------------------------------------------14-13-12-11---|
D|0--------------------------------------------------------------------------------|
A|---------------------------------------------------------------------------------|
E|---------------------------------------------------------------------------------|
                                     
e|-9-10-9-8-9-10-9-7-------------------|
B|-------------------10-9-7-9-7-6-7----|
G|----------------------------------6--|
D|-------------------------------------|
A|-------------------------------------|
E|-------------------------------------|

e|---------------------------10-11-12-13-14-13-12-11-10----------------------------|
B|---------------11-12-13-14-----------------------------14-13-12-11---------------|
G|0--11-12-13-14-----------------------------------------------------14-13-12-11---|
D|0--------------------------------------------------------------------------------|
A|---------------------------------------------------------------------------------|
E|---------------------------------------------------------------------------------|

e|----9-10-9-8-9-10-9-7-------------|
B|----------------------10-9-7---7--|
G|-----------------------------6----|
D|----------------------------------|
A|----------------------------------|
E|----------------------------------|

VERSE 2

e|------------------------------------------------|------------------------------------------------|
B|------------------------------------------------|------------------------------------------------|
G|--------6-------6---------------6-------6-------|--------6-------6---------------6-------6-------|
D|--------7-------7---------------7-------7-------|--------7-------7---------------7-------7-------|
A|9-----------------------8-----------------------|7-----------------------6-----------------------|
E|------------------------------------------------|------------------------------------------------|
When the dawn comes to         greet you,        you'll rise with clothes on

e|------------------------------------------------|------------------------------------------------||
B|------------------------------------------------|------------------------------------------------||
G|--------7-------7---------------7-------7-------|--------6-------6---------------6-------6-------:|
D|--------6-------6---------------6-------6-------|--------6-------6---------------6-------6-------:|
A|5-----------------------8-----------------------|4-----------------------4-----------------------||
E|------------------------------------------------|------------------------------------------------||
   And advance with       the others,                   singing old     songs

e|------------------------------------------------|------------------------------------------------|
B|------------------------------------------------|------------------------------------------------|
G|--------6-------6---------------6-------6-------|--------6-------6---------------6-------6-------|
D|--------7-------7---------------7-------7-------|--------7-------7---------------7-------7-------|
A|9-----------------------8-----------------------|7-----------------------6-----------------------|
E|------------------------------------------------|------------------------------------------------|
    Cattle          and     maidens         and      withered old     queens.

e|------------------------------------------------|------------------------------------------------||
B|------------------------------------------------|------------------------------------------------||
G|--------7-------7---------------7-------7-------|--------6-------6---------------6-------6-------:|
D|--------6-------6---------------6-------6-------|--------6-------6---------------6-------6-------:|
A|5-----------------------8-----------------------|4-----------------------4-----------------------||
E|------------------------------------------------|------------------------------------------------||
       Mu  -           sic     carry           you      on.

e|------------------------------------------------|------------------------------------------------|
B|------------------------------------------------|------------------------------------------------|
G|--------4-------4---------------4-------4-------|--------4-------4---------------4-------4-------|
D|--------4-------4---------------4-------4-------|--------4-------4---------------4-------4-------|
A|------------------------------------------------|------------------------------------------------|
E|6-----------------------5-----------------------|4-----------------------3-----------------------|
   The room that you           lie in          is       dusty and     hard

e|------------------------------------------------|---------------------------|
B|------------------------------------------------|---------------------------|
G|--------6-------6---------------6-------6-------|--------6-------6----------|
D|--------7-------7---------------7-------7-------|--------7-------7----------|
A|9-----------------------8-----------------------|7-----------------------6--|
E|------------------------------------------------|---------------------------|
       Sleeping        soft    babies               on  piles of      yards

e|------------------------------------------------|------------------------------------------------|
B|------------------------------------------------|------------------------------------------------|
G|--------4-------4---------------4-------4-------|--------4-------4---------------4-------4-------|
D|--------4-------4---------------4-------4-------|--------4-------4---------------4-------4-------|
A|------------------------------------------------|------------------------------------------------|
E|6-----------------------5-----------------------|4-----------------------3-----------------------|
   of gingham,                 taffeta,                 cotton and     silk

e|------------------------------------------------|---------------------------|
B|------------------------------------------------|---------------------------|
G|--------6-------6---------------6-------6-------|--------6-------6----------|
D|--------7-------7---------------7-------7-------|--------7-------7----------|
A|9-----------------------8-----------------------|7-----------------------6--|
E|------------------------------------------------|---------------------------|
  Your dry     hung -  ry      mouths cry           for                          your mother's milk

e|---------------------|---------------------------------||
B|---------------------|---------------------------------||
G|-----6-------6-------|--------6-------6----------------:|
D|-----7-------7-------|--------6-------6----------------:|
A|---------------------|4-----------------------4--------||
E|---------------------|---------------------------------||

e|---------------------------------------------------------------------------------------|
B|---------------------------------------------------------------------------------------|
G|-----2---2-------2--------6---6-------6---------1---1-------1--------6---6---6---------|
D|---4---4---4---4--------7---7---7---7---------3---3---3---3----7---7---7---7-----------|(x2)
A|-5-----------5--------9-----------9---------4-----------4--------9-------------9-------|
E|---------------------------------------------------------------------------------------|

e|----------------------------------------------------------------------|
B|----------------------------------------------------------------------|
G|-----4---4-------4--------8---8--------8--------3---3-------3--4------|
D|---6---6---6---6--------9---9---9----9--------5---5---5---5------6----| (x2)
A|-7-----------7-------11-----------11--------6-----------6-------------|
E|----------------------------------------------------------------------|

e|---------------------------10-11-12-13-14-13-12-11-10----------------------------|
B|---------------11-12-13-14-----------------------------14-13-12-11---------------|
G|0--11-12-13-14-----------------------------------------------------14-13-12-11---|
D|0--------------------------------------------------------------------------------|
A|---------------------------------------------------------------------------------|
E|---------------------------------------------------------------------------------|
                                     
e|-9-10-9-8-9-10-9-7-------------------|
B|-------------------10-9-7-9-7-6-7----|
G|----------------------------------6--|
D|-------------------------------------|
A|-------------------------------------|
E|-------------------------------------|

e|---------------------------10-11-12-13-14-13-12-11-10----------------------------|
B|---------------11-12-13-14-----------------------------14-13-12-11---------------|
G|0--11-12-13-14-----------------------------------------------------14-13-12-11---|
D|0--------------------------------------------------------------------------------|
A|---------------------------------------------------------------------------------|
E|---------------------------------------------------------------------------------|

e|----9-10-9-8-9-10-9-7-------------|
B|----------------------10-9-7---7--|
G|-----------------------------6----|
D|----------------------------------|
A|----------------------------------|
E|----------------------------------|
comments
We did not receive enough feedback on this tab! Please rate:
print report bad tab
1 2 3 4 5
I want to post or [tab]
guest
You may want to rate the tab now too:
select rating
Please do not post tabs as comments. Select "correction" instead!