Oops, an error
Loading. Please wait.

The Island Come And See Tab

version 1
version 1

Intro

Whole song

5,604 views 1 this week
2 commentsread comments
1 2 3 4 5
accurate
x 4
add to favorites
launch autoscroll
font size
0
reset
how to read this tab
guitar tuner
Tab Pro tools
  • play this tab
  • loop segment
  • change instrument
  • show fretboard
  • metronome
×
Best way to learn
"The Island Come And See"
Autoscroll
slow
fast
+/-
esc
set tempo
stop
Contributor
My guitar teacher figured this thing out for me just listening to the song a few times. 
recorded the album at his studio so he should know. He's on the special thanks, look it 
His name is Tim Ellis. Anyway enough bragging.

The opening riff is

e-------------------|
b-------------------|
g-----0-------------|
d-2-0---2-0-2-------|
a-------------1-0---|
E-----------------3-|

you can do it in power chords to make it sound more badass if you want.

Then it cuts to

e-2--0--2--0--2--|
b-2--2--2--2--4--|
g-2--2--2--2--4--|
d-4--2--4--2--4--|
a-4--0--4--0--2--|
E-2-----2--------|

for those of you that read chords names that's:

F#m A F#m A B

and then the alternating notes (not guitar) are

e-----------------------------------------------|
b-----------------------------------------------|
g-7/9/7/9/7/9/7/9/7/9/7-------------------------|
d-----------------------7/8/7/8/7/8/7/8/7/8/5---|
a-----------------------------------------------|
E-----------------------------------------------|

and finally the two notes for come and see are

g---4/7---
comments
print report bad tab
2 comments total.
0 reply
Gugnums wrote on July 3 2009, 09:07 pm

pretty good. only thing is the alternating notes on the end go 7/9/7/9 then 5/7/5/7 i think. Besides that everything looks good.

0 reply
EpicLemon wrote on May 4 2014, 09:40 pm

The begging would sound better starting on the 7th fret.

e---------------------------------------|
b---------------------------------------|
g---------------------------------------|
d--------5-------------8---7----5-------|
a--7--5----7--5---7---------------------|
E---------------------------------------|

I want to post or [tab]
guest
You may want to rate the tab now too:
select rating
Please do not post tabs as comments. Select "correction" instead!