Oops, an error
Loading. Please wait.

Youll Not Feel The Drowning tab

version 1
version 1

Whole song

1,161 views 3 this week
no commentswrite comment
1 2 3 4 5
3 more votes to show rating
add to favorites
×
Save as Personal and add changes to this tab that will be seen only by you. Learn more ›
×
You can save this tab as Personal to edit and correct it or add notes. All changes will be seen only by you. Learn more »
launch autoscroll
font size
0
reset
how to read this tab
guitar tuner
edit
Autoscroll
slow
fast
+/-
esc
set tempo
stop
Author
Difficulty
I'm not a real guitar player, but I saw something in Mystical Panther's chords for this 
that could be improved -- the chords for the last two lines:  "You'll not feel the 
which I think are F and G.

Am              C
I will dress your eyelids
Am             C
With dimes upon your eyes
Am              C
Laying close to water
Am                 C
Green your grave will rise
G
Go to sleep little ugly
Am
Go to sleep you little fool
G
Forty-winking in the belfry
F                   G
You'll not feel the drowning
F                   G
You'll not feel the drowning

...and so on

Also, if someone wants to work on the Intro, here's a rough-out of what I have so far:


   E    D E  Em   D   E    Gm A7   G
e|---------------------------------------------------------------------------|
B|---------------------------------------------------------------------------|
G|-9----7-5-------7---9----3--6----4-----------------------------------------|
D|-9----7-5--2----7---9----5--5----5-----------------------------------------|
A|-7----5-3--2----5---7----5--7----5-----------------------------------------|
E|-----------0-------------3--5----3-----------------------------------------|

   F#     A      F#   A    B
e|-2------5------2----5----2-------------------------------------------------|
B|-2------5------2----5----4-------------------------------------------------|
G|-3------6------3----6----4-------------------------------------------------|
D|-4------7------4----7----4-------------------------------------------------|
A|-4------7------4----7----2-------------------------------------------------|
E|-2------5------2----5------------------------------------------------------|

Next group of chords I can't seem to knock out.  It is some combination of Em or Em7 and 
or Bm7, I think.  Then...

   E  E  E          E   E   E
e|-0--0--0----------0---0---0------------------------------------------------|
B|-0--0--0----------0---0---0------------------------------------------------|
G|-1--1--1----------1---1---1------------------------------------------------|
D|-2--2--2----------2---2---2------------------------------------------------|
A|-2--2--2----------2---2---2------------------------------------------------|
E|-0--0--0----------0---0---0------------------------------------------------|

Chorus
    Em   D   C   (repeat)
e|--0----2---0---------------------------------------------------------------|
B|--0----3---1---------------------------------------------------------------|
G|--0----2---0---------------------------------------------------------------|
D|--2----0---2---------------------------------------------------------------|
A|--2--------3---------------------------------------------------------------|
E|--0------------------------------------------------------------------------|

   B     C      B  B   C  D  Am
e|-------0-------------0--2--0-----------------------------------------------|
B|-4-----1------4--4---1--3--1-----------------------------------------------|
G|-4-----0------4--4---0--2--2-----------------------------------------------|
D|-4-----2------4--4---2--0--2-----------------------------------------------|
A|-2-----3------2--2---3-----0-----------------------------------------------|
E|---------------------------------------------------------------------------|

Then a bunch of stuff too complex for me, with Am and D arpeggiated to match a synth 
or something.

            
            
Suggest correction
Creating personal tab
Creating personal tab
You can edit any tab online and save it as your Personal.

You can edit, replace or remove any tab part or add personal notes – all changes will be seen only by you.

Personal tabs can be accessed anytime from any device, even offline.
Learn more »
Give kudos to tab author, rate the tab!
1 2 3 4 5
comments
print report bad tab
guest
You may want to rate the tab now too:
select rating
Wanna post a correction for this tab? Suggest correction