Oops, an error
Loading. Please wait.

Black Death Tab

2,065 views 1 this week
no commentswrite comment
1 2 3 4 5
please rate
add to favorites
launch autoscroll
font size
0
reset
how to read this tab
guitar tuner
Autoscroll
slow
fast
+/-
esc
set tempo
stop
Help us to improve Ultimate-Guitar.com Take our survey!
×
Author
Difficulty
Tuning
intermediate
A E A D F# B
hey hello there..this is my second tab..and its again the defiled!!!!!
the song im going to tab is black death
i tabbed it out by ear...

the tuning for the defiled's song is DROP A TUNING EXCEPT CALL TO ARMS,IN THE LAND OF
FOOLS,THE ILL DISPOSED WHICH U JUST TUNE THE BOTTOM A TO DROP F SHARP
FINAL SLEEP IS DROP C# STANDARD......LUKE TOLD ME :)

AND SOMETHING EEEEELSE THIS TAB BELONGS TO ULTIMATE GUITAR AND NOT OTHER SITES

EMAIL:michaelmanaek@hotmail.com

HERE WE BEGIN


                  intro(find out timming,i thing its right)
B |------------------------------------------------------------------|
F#|------------------------------------------------------------------|
D |------------------------------------------------------------------|
A |---7p4---5p4----------7p4---5p4---5p2---3p2---------7p4---5p44444-|
E |-------------------------------------------------------------4444-| 2 times
A |444---444---4-7777-444---444---222---222---2-777-444---444---4444-|

                          interlude

B |-----------------------------------------------------------------|
F#|-----------------------------------------------------------------|
D |-----------------------------------------------------------------|
A |777777----333333----555555---------------------------------------|
E |777777----333333----555555---------------------------------------|
A |777777----333333----555555---------------------------------------|


                            VERSE

B |---------------------------------------------------------------------|
F#|---------------------------------------------------------------------|
D |---------------------------------------------------------------------|
A |---7p4---5p4----------7p4---5p4----------7p4---5p4--------7p4---5p4--|
E |---------------------------------------------------------------------|
A |444---444---4-7777-444---444---4-7777-444---444---7777-444---444-222-|


                       RIFF AFTER VERSE

B |-----------------------------------------------------------------|
F#|-----------------------------------------------------------------|
D |-----------------------------------------------------------------|
A |77777777--99--55555555-------------------------------------------|
E |77777777--99--55555555-------------------------------------------|
A |77777777--99--55555555-------------------------------------------|

   PRE CHORUS(u could slide at 2nd fret after 4rth)found out timing
B |------------------------------------------------------------------|
F#|------------------------------------------------------------------|
D |------------------------------------------------------------------|
A |44444//5555//777----44444//5555//77777//99999---------------------|
E |44444//5555//777----44444//5555//77777//99999(reapeat again-------|
A |44444//5555//777----44444//5555//77777//99999---------------------|


                      CHORUS
B |-----------------------------------------------------------------|
F#|-----------------------------------------------------------------|
D |-----------------------------------------------------------------|
A |777777777777-44444444-44444444/22/444444/55555/7777/99999--------|
E |555555554444-22222222-44444444/22/444444/55555/7777/99999--------|
A |----------------------44444444/22/444444/55555/7777/99999--------|

B |-------------------------------------------------------------------|
F#|-------------------------------------------------------------------|
D |-------------------------------------------------------------------|
A |777777777777-44444444-4444444-6666-77777---------------------------|
E |555555554444-22222222-2222222-4444-55555---------------------------|
A |-------------------------------------------------------------------|



B |-------------------------------------------------------------------|
F#|-------------------------------------------------------------------|
D |-------------------------------------------------------------------|
A |2-4-2-4--2-4-2-4--4/555555/77777/9999---2-4-2-4-2-4-2-4------------|REAPEAT again
E |2-4-2-4--2-4-2-4--4/555555/77777/9999---2-4-2-4-2-4-2-4------------|
A |2-4-2-4--2-4-2-4--4/555555/77777/9999---2-4-2-4-2-4-2-4--555/777/9-|




reapeat verse(about 12 times)

reapeat riff after verse(1 time) :D

reapeat pre chorus(same as before)

reapeat chorus (same :p )

at 3:38 reapeat verse until 4:00(there are some bends

on the first fret of HIGH A)

then

B |-------------------------------------------------------------------|
F#|-------------------------------------------------------------------|
D |-------------------------------------------------------------------|
A |2-4-2-4--2-4-2-4--4/555555/77777/9999---2-4-2-4-2-4-2-4------------|
E |2-4-2-4--2-4-2-4--4/555555/77777/9999---2-4-2-4-2-4-2-4------------|
A |2-4-2-4--2-4-2-4--4/555555/77777/9999---2-4-2-4-2-4-2-4--555/777/9-|



then again 1 time verse and end it the way you like it






WELL THATS ALL FROM BLACK DEATH.....THERE MUST BE SOME PARTS THAT MAY
BE OFF A LITTLE BIT BUT OK....
NEXT TABS WILL BE FINAL SLEEP,LOCKED IN
FREEDOM,CALL TO ARMS,THE RESSURECTIONISTS WITH THE LITTLE SOLO THING,

IN THE LAND OF FOOL,BLOOD SELLS,AND MAYBE 1888       THANKS :)
Suggest correction
What's this?
You can suggest a correction to this tab. Community and Mods will review your correction and vote to approve or reject it.
comments
We did not receive enough feedback on this tab! Please rate:
print report bad tab
1 2 3 4 5
guest
You may want to rate the tab now too:
select rating
Please do not post tabs as comments. Select "correction" instead!