Oops, an error
Loading. Please wait.

Metropolis Tab

949 views 1 this week
no commentswrite comment
1 2 3 4 5
3 more votes to show rating
add to favorites
launch autoscroll
font size
0
reset
how to read this tab
guitar tuner
Autoscroll
slow
fast
+/-
esc
set tempo
stop
Help us to improve Ultimate-Guitar.com Take our survey!
×
Author
Difficulty
Tuning
intermediate
A E A D F# B
hey everyone this is my first tab.

the song is from the defileds album grave times.....its called metropolis

here we begin

tuning drop A:AEADF#B


INTRO


B|---------------------------------------------------------------------------|
F#|--------------------------------------------------------------------------|
D|---------------------------------------------------------------------------|
A|---------------------------------------------------------------------------|
E|---------------------------------------------------------------------------|
A|1-0-000-000-000-1-0-1-0-1-3-1-0-000-000-000-1-0-1-0-1-3-1-0-000-000-000----|




B|-------------------------------------------------------------------------|
F#|------------------------------------------------------------------------|
D|-------------------------------------------------------------------------|
A|----------------8/7-------7/5--------------------------------------------|
E|----------------6/5-------5/3--------------------------------------------|
A|1-0-1-0-1-3-0p1-----1p0---------1h3-1h3---1p0----------------------------|




B|---------------------------------------------------------------------------|
F#|--------------------------------------------------------------------------|
D|---------------------------------------------------------------------------|
A|---------------------------------------------------------------------------|
E|---------------------------------------------------------------------------|
A|1-0-000-000-000-1-0-1-0-1-3-1-0-000-000-000-1-0-1-0-1-3-1-0-000-000-000----|




B|-------------------------------------------------------------------------|
F#|------------------------------------------------------------------------|
D|-------------------------------------------------------------------------|
A|----------------8/7-------7/5--------------------------------------------|
E|----------------6/5-------5/3--------------------------------------------|
A|1-0-1-0-1-3-0p1-----1p0---------1h3-1h3---1p0----------------------------|


B|---------------------------------------------------------------------------|
F#|--------------------------------------------------------------------------|
D|---------------------------------------------------------------------------|
A|---------------------------------------------------------------------------|
E|---------------------------------------------------------------------------|
A|1-0-000-000-000-1-0-1-0-1-3-1-0-000-000-000-1-0-1-0-1-3-1-0-000-000-000----|




B|-------------------------------------------------------------------------|
F#|------------------------------------------------------------------------|
D|-------------------------------------------------------------------------|
A|----------------8/7-------7/5--------------------------------------------|
E|----------------6/5-------5/3--------------------------------------------|
A|1-0-1-0-1-3-0p1-----1p0---------1h3-1h3---1p0----------------------------|



at the end of the 3rd time

B|----------------------------------------------------------------------------|
F#|---------------------------------------------------------------------------|
D|----------------------------------------------------------------------------|
A|----------------------------------------------------------------------------|
E|----------------------------------------------------------------------------|
A|1-3-1-3-1-3-1-3----4-3-4-3-4-3-4-3-----1-1-1-1------------------------------|




     VERSE

B|-----------------------------------------------------------------------|
F#|----------------------------------------------------------------------|
D|-----------------------------------------------------------------------|
A|----8/7---7/5---5/3----------------------------------------------------|
E|----6/5---5/3---3/1----------------------------------------------------|
A|1-0----1-0---1-0----3-0-3-0-3-0-1-3-1-0--------------------------------|

B|-----------------------------------------------------------------------|
F#|----------------------------------------------------------------------|
D|-----------------------------------------------------------------------|
A|----8/7---7/5---5/3----------------------------------------------------|
E|----6/5---5/3---3/1----------------------------------------------------|
A|1-0----1-0---1-0----3-0-3-0-3-0-1-3-1-0--------------------------------|

B|-----------------------------------------------------------------------|
F#|----------------------------------------------------------------------|
D|-----------------------------------------------------------------------|
A|----8/7---7/5---5/3----------------------------------------------------|
E|----6/5---5/3---3/1----------------------------------------------------|
A|1-0----1-0---1-0----3-0-3-0-3-0-1-3-1-0--------------------------------|

B|-----------------------------------------------------------------------|
F#|----------------------------------------------------------------------|
D|-----------------------------------------------------------------------|
A|----8/7---7/5---5/3----------------------------------------------------|
E|----6/5---5/3---3/1----------------------------------------------------|
A|1-0----1-0---1-0----3-0-3-0-3-0-1-3-1-0--------------------------------|




THEN

B|---------------------------------------------------------------------------|
F#|--------------------------------------------------------------------------|
D|---------------------------------------------------------------------------|
A|------------------------------555------------------------------------------|
E|------------------------------555------------------------------------------|
A|0-3-0-3-0-3-0-3b-4-3-4-3-4-3--555------------------------------------------|






     CHORUS(I COULDNT FOUND OUT THE TIMING BUT ITS PRETTY EASY TO FIGURE OUT)
B|---------------------------------------------------------------------|
F#|--------------------------------------------------------------------|
D|---------------------------------------------------------------------|
A|888888888888---10-10-10-10-10888888888888888-10-10-10-10-10888888888-|
E|88888888888888888888888888888888888888888888888888888888888888888888
A|88888888888888888888888888888888888888888888888888888888888888888888


B|----------------------------------------------------------------------|
F#|---------------------------------------------------------------------|
D|----------------------------------------------------------------------|
A|3333--44444444--66666-------------------------------------------------|
E|3333--444444444444444-------------------------------------------------|
A|3333--444444444444444---------1b-1b-1b--------------------------------|

B|---------------------------------------------------------------------|
F#|--------------------------------------------------------------------|
D|---------------------------------------------------------------------|
A|888888888888---10-10-10-10-10888888888888888-10-10-10-10-10888888888-|
E|88888888888888888888888888888888888888888888888888888888888888888888
A|88888888888888888888888888888888888888888888888888888888888888888888


B|----------------------------------------------------------------------|
F#|---------------------------------------------------------------------|
D|----------------------------------------------------------------------|
A|3333--44444444--66666-------------------------------------------------|
E|3333--444444444444444-------------------------------------------------|
A|3333--444444444444444---------1b-1b-1b--------------------------------|



   REPEAT VERSE AGAIN
   REPEAT CHORUS AGAIN

B|-----------------------------------------------------------------------|
F#|----------------------------------------------------------------------|
D|-----------------------------------------------------------------------|
A|-----------------------------------------------------------------------|
E|----------------------------------------------------------8-9----------|
A|1b-1b-1b-1b-2---1b-1b-1b-1b-2---1b-1b-1b-1b-2----1b-1b-1b-8-9----------|


   REPEAT CHORUS(BE CAREFUL IT STARTS ON 4ths)


    INTERLUDE
B|----------------------------------------------------------------------|
F#|---------------------------------------------------------------------|
D|----------------------------------------------------------------------|
A|----------------------------------------------------------------------|
E|----------------------------------------------------------------------|
A|111-0-111-0-111-0-111-0-111-0-111-0-111-0-0001113334444---------------|

THERE ARE SOME BENDS ON THE WAY(3b)

    REPEAT IT MANY TIMES

   OUTRO
B|-----------------------------------------------------------------------|
F#|----------------------------14*-15*-14*\\\\\\\\\\\\\\\\\\\\\\\\23*----|
D|-----------------------------------------------------------------------|
A|-----------------------------------------------------------------------|
E|-----------------------------------------------------------------------|
A|0-----000-000-000------------------------------------------------------|

B|---------------------------------------------------------------------|
F#|--------------------------------------------------------------------|
D|---------------------------------------------------------------------|
A|-----------7-8-3-7-10-10-10-10---------------------------------------|
E|-----------5-5-5-5-8--8--8--8 ---------------------------------------|
A|000-000-000----------------------------------------------------------|




WELL THATS IT
THANK YOU VERY MUCH HOPE YOU LIKE IT.....ITS my first so be nice!! :)
Suggest correction
Give kudos to tab author, rate the tab!
1 2 3 4 5
comments
print report bad tab
guest
You may want to rate the tab now too:
select rating
Wanna post a correction for this tab? Suggest correction