Oops, an error
Loading. Please wait.

The Resurrectionists Tab

4,272 views 1 this week
3 commentsread comments
1 2 3 4 5
excellent!
x 5
add to favorites
launch autoscroll
font size
0
reset
how to read this tab
guitar tuner
Autoscroll
slow
fast
+/-
esc
set tempo
stop
Help us to improve Ultimate-Guitar.com Take our survey!
×
Author
Difficulty
Tuning
Garzone 81
intermediate
A E A D F# B
-------------------------------------------------------------------------------
                             The Ressurectionists - The Defiled
-------------------------------------------------------------------------------
Tabbed by: Garzone
Email: garzone94@gmail.com

Tuning: Drop A

Intro: Lead Guitar
e|-------------------------------------------------|
B|-------------------------------------------------|
G|-------------------------------------------------|
D|-------------------------------------------------| X 5
A|--5-6-3-5-6-3-5-6-5-8b98---5-6-3-5-6-3-5-6-5-3-1-|
E|-0-0-0-0-0-0-0-0-0-0------0-0-0-0-0-0-0-0-0--3-1-|
   . . . . . . . . . .      . . . . . . . . .

Intro: Rhythym Guitar (Part 1)
e|----------------------------------------------------|
B|----------------------------------------------------|
G|----------------------------------------------------|
D|----------------------------------------------------| X 1
A|-0~----------------------3~------------------3-1-0~-|
E|-0~----------------------3~------------------3-1-0~-|

e|--------------------------------------------------|
B|--------------------------------------------------|
G|--------------------------------------------------|
D|--------------------------------------------------| X 1
A|-0~----------------------3~-----------------------|
E|-0~----------------------3~--------------------*1-|

Intro: Rhythym Guitar (Part 2)
e|------------------------------------------------------------------------|
B|------------------------------------------------------------------------|
G|------------------------------------------------------------------------|
D|------------------------------------------------------------------------| X 3
A|-00--00--0000----00--00--0000--3-1---00--00--0000----00--00--0000--3----|
E|-00--00--0000----00--00--0000--3-1---00--00--0000----00--00--0000--3-*1-|


Main Riff: Both Guitars, Lead Guitar plays first bar once alone
e|----------------------------------------------------------|
B|----------------------------------------------------------|
G|----------------------------------------------------------|
D|----------------------------------------------------------|
A|-------------------------------------------------333------|
E|-3p0-0-3p0-0-3p0-0-3p0-0-5h6p5-3p0-0-3p0-0-3p0-0----55-66-|
       .     .     .     .           .     .     .
       
e|-------------------------------------------------------|
B|-------------------------------------------------------|
G|-------------------------------------------------------|
D|-------------------------------------------------------|
A|-------------------------------------333---------------|
E|-3p0-0-3p0-0-3p0-0-3p0-0-5h6p5-3p0-0----555-666-555-33-|
       .     .     .     .           .

Bridge: Both Guitars
e|---------------------------|----------------------------|
B|---------------------------|----------------------------|
G|---------------------------|----------------------------|
D|---------------------------|----------------------------| First half twice
A|-5--5555-5555--3-3333-3333-|----------------------------|
E|-5--5555-5555--3-3333-3333-|-0-000-0-0-000-0-000-00-000-|

Lead Guitar plays main riff, first bar, alone once

VERSE 2: Both Guitars repeat Main Riff

Pre-Chorus: Both Guitars
e|-----------------------------------------------------|
B|-----------------------------------------------------|
G|-----------------------------------------------------|
D|----------------------------3--3333-3333-3-3333-3333-|
A|-5--5555-5555--3-3333-3333--1--1111-1111-1-1111-1111-|
E|-5--5555-5555--3-3333-3333---------------------------|


Chorus: Both Guitars
e|--------------------------------------------------------------------|
B|--------------------------------------------------------------------|
G|--------------------------------------------------------------------|
D|-77777777777777777777777777777777--33333333333333333333333333333333-|
A|-55555555555555555555555555555555--11111111111111111111111111111111-|
E|--------------------------------------------------------------------|

e|---------------------------------------------------------------|
B|---------------------------------------------------------------|
G|---------------------------------------------------------------|
D|---------------------------------------------------------------|
A|-555555555555555555555555-7777-9999999999999999999999999999999-|
E|-555555555555555555555555-7777-9999999999999999999999999999999-|

Post-Chorus: Both Guitars
e|-------------------------------------------------------------------|
B|-------------------------------------------------------------------|
G|-------------------------------------------------------------------|
D|-------------------------------------------------------------------|
A|---------------------------------------3h5-------------------------|
E|-3-0-3-0-3-0-3-0-3-111-3-0-3-0-3-0-3-0----6~-3-0-3-0-3-0-3-0-3-111-|

e|------------------------------------------------------------------------------------------|
B|------------------------------------------------------------------------------------------|
G|------------------------------------------------------------------------------------------|
D|------------------------------------------------------------------------------------------|
A|-----------------3h5-----------------------------------------3h5--------------------------|
E|-3-0-3-0-3-0-3-0----6~-3-0-3-0-3-0-3-0-3-111--3-0-3-0-3-0-3-0----6~-3-0-3-0-3-0-3-0-3-111-|


e|---------------------------------------------|
B|---------------------------------------------|
G|---------------------------------------------|
D|---------------------------------------------|
A|-3-0-3-0-3-0-3-0-3h5-------------------------|
E|-3-0-3-0-3-0-3-0----6~-3-0-3-0-3-0-3-0-3-111-|

Pre-Main Riff: Both Guitars
e|--------------------------|-----------------------------------------------------------|
B|--------------------------|-----------------------------------------------------------|
G|--------------------------|-----------------------------------------------------------|
D|--------------------------|-----------------------------------------------------------|
A|-////////////////////////-|-------------------------------------------------333-------|
E|-////////////////////////-|-3p0-0-3p0-0-3p0-0-3p0-0-5h6p5-3p0-0-3p0-0-3p0-0----33-555-|

VERSE 3: Both Guitars repeat Main Riff
BRIDGE 2: Both Guitars repeat Bridge

CHORUS: Both Guitars: Note the change in second time played
e|--------------------------------------------------------------------|
B|--------------------------------------------------------------------|
G|--------------------------------------------------------------------|
D|-77777777777777777777777777777777--33333333333333333333333333333333-|
A|-55555555555555555555555555555555--11111111111111111111111111111111-|
E|--------------------------------------------------------------------|

e|----------------------------------------------------------|
B|----------------------------------------------------------|
G|----------------------------------------------------------|
D|----------------------------------------------------------|
A|-555555555555555555555555-7777-9999999999999999-9-8-5-3-2-|
E|-555555555555555555555555-7777-9999999999999999-9-8-5-3-2-|

Post-Chorus: Lead Guitar
e|-------------------------------------------------|
B|-------------------------------------------------|
G|-------------------------------------------------|
D|-------------------------------------------------| X 4
A|--5-6-3-5-6-3-5-6-5-8b98---5-6-3-5-6-3-5-6-5-3-1-|
E|-0-0-0-0-0-0-0-0-0-0------0-0-0-0-0-0-0-0-0--3-1-|

Outro:  Lead Guitar
e|------------------------------------------------------------------------|
B|------------------------------------------------------------------------|
G|------------------------------------------------------------------------|
D|------------------------------------------------------------------------| X 1
A|-00--00--0000----00--00--0000--3-1---00--00--0000----00--00--0000--3----|
E|-00--00--0000----00--00--0000--3-1---00--00--0000----00--00--0000--3-*1-|


Outro: Rhythym Guitar
e|----------------------------------------------------|
B|----------------------------------------------------|
G|----------------------------------------------------|
D|----------------------------------------------------| X 2
A|-0~----------------------3~------------------3-1-0~-|
E|-0~----------------------3~------------------3-1-0~-|

Outro: Rhythym Guitar
e|--------------------------------------------------|
B|--------------------------------------------------|
G|--------------------------------------------------|
D|--------------------------------------------------| X 1
A|-0~----------------------3~-----------------------|
E|-0~----------------------3~--------------------*1-|

Very end: Both Guitars
e|------------|
B|------------|
G|------------|
D|------------|
A|-00-00-0000-|
E|-00-00-0000-|


http://www.myspace.com/thedefiled
************************************

| /   slide up
| \   slide down
| h   hammer-on
| p   pull-off
| ~   vibrato/let ring
| +   harmonic
| x   Mute note
| b   Bend
| pb  Pre-bend
| br  Bend release
| pbr Pre-bend release
| brb Bend release bend
  *   Pinch harmonic
************************************
Suggest correction new What's this?
You can suggest a correction to this tab. Community and Mods will review your correction and vote to approve or reject it.
comments
print report bad tab
3 comments total.
+1 reply
PingusFriend 25 wrote on February 18 2011, 02:13 pm

YES! thank you so much, finally a Defiled tab!!! \m/

0 reply
Garzone 81 wrote on May 5 2011, 04:07 pm

Thanks a lot man!
I know, i couldn't find it anywhere either so i was like **** it :L

0 reply
guitarists333 71 wrote on January 3 2012, 01:03 pm

well chorus sounds a bit weird but ill give u 5 stars......i also tabbes out metropolis...check it out :)

guest
You may want to rate the tab now too:
select rating
Please do not post tabs as comments. Select "correction" instead!