Oops, an error
Loading. Please wait.

Dark Sound Bass Tab

66 views 1 this week
no commentswrite comment
1 2 3 4 5
please rate
add to favorites
launch autoscroll
font size
0
reset
guitar tuner
Autoscroll
slow
fast
+/-
esc
set tempo
stop
Help us to improve Ultimate-Guitar.com Take our survey!
×
Difficulty
novice
 
Dark Sound -The Delegates
From: Diary Of A Hamilton Fish, 2005
  
Intro
----------------------|
----------------------|
--3--33--0h3-5--------|
----------------------|
Verse
---------------------------------------------|
---------------------------------------------| 
--5--55--55-55--0--10~--10\--00--33--0h3-----|  x2
---------------------------------------------|

  Chorus
------(16)-------------(8)--------------------|
----------------------------------------------| 
---5555555555555555-33333333-0000-33-0h3------|  x2
----------------------------------------------|
 
--Verse
 
 Chorus Part 2
-------------------------------------------------|
-------------------------77----------------------|    
---555----------555------------------------------|   x2
---------6~---5~-------------6-5-3-1-0~----------|

--Verse
--Chorus

Bridge 
-----------------------------------------------------------------------|
-----------------------------------------------------------------------|
---5--3--0---5--3--0-----55---------55----------55---------55----------|
----------------------------6~--5~------6~--5~-----6~--5~-----6~--5~---|

--Chorus part 2

Ending, Outro
-------------------------------------------------------------|
-------------------------------------------------------------|
---5-3-0--3-1-0----------------------------------------------|
--------------------6-5-3--5-3-0--3-1-0--1-3-1-0~-----/10----|

R.I.P Delegates
Tabbed by:"Blask"
http://www.thedelegates.org/news.php
comments
We did not receive enough feedback on this tab! Please rate:
print report bad tab
1 2 3 4 5
I want to post or [tab]
guest
You may want to rate the tab now too:
select rating
Please do not post tabs as comments. Select "correction" instead!