Oops, an error
Loading. Please wait.

Sahib Teri Bandi tab

43 views 18 this week
no commentswrite comment
1 2 3 4 5
3 more votes to show rating
add to favorites
×
Save as Personal and add changes to this tab that will be seen only by you. Learn more ›
×
You can save this tab as Personal to edit and correct it or add notes. All changes will be seen only by you. Learn more »
launch autoscroll
font size
0
reset
how to read this tab
guitar tuner
edit
Autoscroll
slow
fast
+/-
esc
set tempo
stop
Open E Tuning:

[Main Riff]
One key part of Derek's slide and fretted playing is his rake.
Its basically his thumb striking or raking the strings starting with the low e or b and 
raking up to the note
you what, then picking the note you want with whatever finger you use (I mostly use the 
middle finger but the
ring or index works just as well). Heres the tab:

E |----------------------------------------------------|
B |------6--6---/8--/8-----6\4-------------------------|
G#|-------------------------------6\4---/7~~/9\6\4-----|
E |----------------------------------------------------|
B |----------------------------------------------------|
E |----------------------------------------------------|

E |----------------------------------------------------|
B |----------------------------------------------------|
G#|----------------------------------------------------|
E |----------8--8------6--8---10---8\6---6~-6~---------|
B |-----/8-----------6---------------------------------|
E |----------------------------------------------------|

E |------------------------------------------------------|
B |------------------------------------------------------|
G#|------------------------------------------------------|
E |-----5/6--5/6----3/4\3\1-1-4-3---/10--8\6-----6--8----|
B |----------------------------------------------------6-|
E |---------------------3/4\3\1-1-4-3--------------------|

E |-----------------------------|
B |-----------------------------|
G#|-----------------------------|
E |-----/10---8\6--6~~----------|
B |-----------------------------|
E |-----------------------------|

(here are one or two little hooks he will use)

[Instrumental]
E |-------------------------------------------|
B |-------------------------------------------|
G#|-----6~~-------6/8/9~-----\8\6/8~\6\4/6~---|
E |----/6-----------/6------------------------|
B |-------------------------------------------|
E |-------------------------------------------|

(He likes to usually pick the barred 6th fret inbetween alot of the phrases he uses as well)

E |------------------------------------------|
B |------------------------------------------|
G#|----/6/8-\-6\4/6--------------------------|
E |----------------------------6--------~----|
B |-------------------------------6-----~----|
E |----------------------------------6--~----|

(Ive seen Derek open the tune with this chord)
E |----------------------|
B |----------------------|
G#|----------------------|
E |----------5-----/6----|
B |----------8-----(8)---|
E |----------6-----(6)---|

[Hook]
E |----------------------------------------|---------------------|
B |--------/11~--10--\--5/6~~~---|-------------------------------|
G#|--------------------------------------|--/6/7/9\-(6)----------|
E |-----------------------------------------|-----------------6--|
B |-----------------------------------------|--------------------|



************************************

| /    Slide up
| \    Slide down
| ~    Vibrato
| (n)  Ghost note
|      
| #    
| ~\   
| ~~/  

************************************

            
            
Suggest correction
Creating personal tab
Creating personal tab
You can edit any tab online and save it as your Personal.

You can edit, replace or remove any tab part or add personal notes – all changes will be seen only by you.

Personal tabs can be accessed anytime from any device, even offline.
Learn more »
Give kudos to tab author, rate the tab!
1 2 3 4 5
comments
print report bad tab
guest
You may want to rate the tab now too:
select rating
Wanna post a correction for this tab? Suggest correction