Oops, an error
Loading. Please wait.

Sweet Inspiration Tab

15,429 views 18 this week
2 commentsread comments
1 2 3 4 5
excellent!
x 7
add to favorites
launch autoscroll
font size
0
reset
how to read this tab
guitar tuner
Tab Pro tools
  • play this tab
  • loop segment
  • change instrument
  • show fretboard
  • metronome
×
Best way to learn
"Sweet Inspiration"
Autoscroll
slow
fast
+/-
esc
set tempo
stop
Contributor
Tabbers playing skills
advanced
Band/Artist: Derek Trucks Band
Song: Sweet Inspiration
Album: Already Free (2009)
Transcribed by: LedDaveZeppelin, with some help from Aig91.

|  h = hammer on
|  p = pull off
|  b = full bend
|  ^ = half bend/partial bend
|  r = release bend
|  / = slide up
|  \ = slide down
|  ~ = vibrato
|  # = slightly sharp

(Organ Intro)
e|-----12h13h14-12--------------------------0----2----------------2--|
B|-----------------14----12h13h14-12h13h14--2----4---0h1p0--------4--|
G|--14----------------14--------------------2----2-----------2----2--|
D|------------------------------------------2----4---------4------4--|
A|------------------------------------------0----2----------------2--|
E|------------------------------------------0----2----------------2--|

e|-2-----------2-------|
B|-4--1h2------4-------|
G|-2------2----2-------|
D|-4-----------4-------|
A|-------------2-------|
E|-------------2-------|


(Guitar Intro)
e|-------------------------|
B|-----2-------------------|
G|-----2--------2-------2--|
D|-----2----2h4---4-4p2----|
A|--0----------------------|
E|-------------------------|

e|--------------------------------------------|
B|----2--------------------2------------------|
G|----2------2-------2-----2-------2-------2--|
D|----2--2h4---4-4p2-------2---2h4---4-4p2----|
A|-0--------------------0---------------------|
E|--------------------------------------------|


(Verse)
e|--------------------------------------------|
B|-----2--------------------2-----------------|
G|-----2------2-------2-----2------2-------2--|
D|-----2--2h4---4-4p2-------2--2h4---4-4p2----|
A|--0--------------------0--------------------|
E|--------------------------------------------|

e|--------------------------------------------|
B|-----7--------------------7-----------------|
G|-----7------7-------7-----7------7-------7--|
D|-----7--7h9---9-9p7-------7--7h9---9-9p7----|
A|--5--------------------5--------------------|
E|--------------------------------------------|

e|--------------------------------------------|
B|-----2--------------------2-----------------|
G|-----2------2-------2-----2------2-------2--|
D|-----2--2h4---4-4p2-------2--2h4---4-4p2----|
A|--0--------------------0--------------------|
E|--------------------------------------------|

e|-----0--------------------0-----------------|
B|-----0--------------------0-----------------|
G|-----1--------------------1-----------------|
D|-----2------2-------2-----2------2-------2--|
A|--------2h4---4-4p2----------2h4---4-4p2----|
E|--0--------------------0--------------------|


e|--------------------------------------------|
B|-----2--------------------2-----------------|
G|-----2------2-------2-----2------2-------2--|
D|-----2--2h4---4-4p2-------2--2h4---4-4p2----|
A|--0--------------------0--------------------|
E|--------------------------------------------|

e|--------------------------------------------|
B|-----7--------------------7-----------------|
G|-----7------7-------7-----7------7-------7--|
D|-----7--7h9---9-9p7-------7--7h9---9-9p7----|
A|--5--------------------5--------------------|
E|--------------------------------------------|

e|--------------------------0-----------------|
B|-----2--------------------0-----------------|
G|-----2------2-------2-----1-----------------|
D|-----2--2h4---4-4p2-------2------2-------2--|
A|--0--------------------------2h4---4-4p4----|
E|-----------------------0--------------------|

e|--------------------------------------------|
B|-----2--------------------2-----------------|
G|-----2------2-------2-----2------2-------2--|
D|-----2--2h4---4-4p2-------2--2h4---4-4p2----|
A|--0--------------------0--------------------|
E|--------------------------------------------|


(Solo)
e|-------------------------------------------------------------------------|
B|--/2---------------------------------------------------------------------|
G|--/2-2--2--//6----9~~/7/9\7\5\2------------------------------------------|
D|--/2---------------------------------------------------------------------|
A|-------------------------------------------------------------------------|
E|---------------------------------0-3-/8-/10-/11-8\5-5-5-5-8\-------------|

e|-----------------------------------17~-----------------------------------|
B|--/10-10--8\5-8--10-10---13-14-15--------/19-17--------------------------|
G|-------------------------------------------------16pb14~~14-14b16--------|
D|-------------------------------------------------------------------------|
A|-------------------------------------------------------------------------|
E|-------------------------------------------------------------------------|

e|-------------------------------------------------------------------------|
B|-----17-17-17b19-17~--17/19\17-15h17-------------------------------------|
G|-/18---------------------------------16/18-------------------------------|
D|--------------------------------------------14-14--14/-------------------|
A|-------------------------------------------------------------------------|
E|-------------------------------------------------------------------------|

e|--------------------------------------|
B|----10-12b14-----10--12h14p12\7~~/10--|
G|-11-----------11----------------------|
D|--------------------------------------|
A|--------------------------------------|
E|--------------------------------------|

e|--------------------------------------------|
B|--------------------------------------------|
G|9/11\9----9---------------------------------|
D|-------11----9/11~~~9-9h11p9\7-9/11-9--7--7/|
A|--------------------------------------------|
E|--------------------------------------------|

e|--------------------10-11-12-12\10-----------|--/14-14-17~--14-----------|
B|------10~-12b14--10----------------10--12b14-|---------------------------|
G|--/11----------------------------------------|---------------------------|
D|---------------------------------------------|---------------------------|
A|---------------------------------------------|---------------------------|
E|---------------------------------------------|---------------------------|

e|-/21------------------------|--------17--19b21-22-21pb19-17-19b20-17-14/-|
B|------19p17-----------------|--17/19-------------------------------------|
G|------------19p18-14--16b18-|--------------------------------------------|
D|----------------------------|--------------------------------------------|
A|----------------------------|--------------------------------------------|
E|----------------------------|--------------------------------------------|

e|----------------------|-----------------------------------/17~~~---------|
B|--/17-16-15-----------|-17\15/17-17-17---------------17---/17~~~---------|
G|--/18-17-16-14~~16b18-|----------18-18--14-14--16b18---------------------|
D|----------------------|--------------------------------------------------|
A|----------------------|--------------------------------------------------|
E|----------------------|--------------------------------------------------|


(Slide guitar fills)

   0:39
e|-------------------|
B|-8#-8--5--5--/14~--|
G|-------------/14~--|
D|-------------/14~--|
A|-------------------|
E|-------------------|


   0:48
e|------------------------------|
B|-7--10~-----------------------|
G|------------------------------|
D|----------10\9--7---/11/14\7--|
A|------------------------------|
E|------------------------------|


   0:57
e|-------------------|
B|-/7----------------|
G|-----/6------------|
D|---------7~--------|
A|-------------------|
E|-------------------|


   1:05
e|--------------------------------------|
B|-13#~--10---13#--10-------------------|
G|---------------------11---------------|
D|-------------------------13\12\10\7~--|
A|--------------------------------------|
E|--------------------------------------|


   1:14
e|------------------------------|
B|--------9---------------------|
G|-4/6/9-----9----9--12\11\9~---|
D|------------------------------|
A|------------------------------|
E|------------------------------|


   1:22
e|-----------------------------------------|
B|-13#-13#\13--10--13#--10-----------------|
G|--------------------------11—------------|
D|------------------------------12\10--7---|
A|-----------------------------------------|
E|-----------------------------------------|


   2:33
e|----------------|
B|----------------|
G|----------------|
D|-11\9--7--/11---|
A|----------------|
E|----------------|


   2:42
e|-------------------|
B|-------------------|
G|-14\12\9—9\7\5\2~--|
D|-------------------|
A|-------------------|
E|-------------------|


   2:49
e|----------------------------------------------|
B|-------------------------------------5--------|
G|-/11--12--11--/11--9--7--7\5-----/6-----------|
D|------------------------------7---------/7~---|
A|----------------------------------------------|
E|----------------------------------------------|


   2:57
e|----------------------------|
B|----------------------/14---|
G|-12#\12--9—-11/13--9--/14---|
D|----------------------/14---|
A|----------------------------|
E|----------------------------|


   3:06
e|----------------------------------------------|
B|----------------------------------------------|
G|-14\12/14\12\9/12\9\7/9\7\5/7\5\2--/5--2--/5--|
D|----------------------------------------------|
A|----------------------------------------------|
E|----------------------------------------------|


   3:13
e|--------------------------------------------------------|
B|-/14--15--17------14----13#--10--13#--10--10------------|
G|--------------14------------------------------9\7\5\2~--|
D|--------------------------------------------------------|
A|--------------------------------------------------------|
E|--------------------------------------------------------|


   3:19
e|--------------------------------|
B|--------------------------------|
G|-/14--14--14--14--14\12\9---9---|
D|-/14--14--14--14--14\12\9---9---|
A|--------------------------------|
E|--------------------------------|

e|--------------------------------|
B|--------------------------------|
G|-/14--14--14--14--14\12\9---9---|
D|-/14--14--14--14--14\12\9---9---|
A|--------------------------------|
E|--------------------------------|

e|--------------------------------|
B|--------------------------------|
G|-/14--14--14--14--14\12\9---9---|
D|-/14--14--14--14--14\12\9---9---|
A|--------------------------------|
E|--------------------------------|

e|--------------------------------|
B|--------------------------------|
G|-/14--14--14--14--14\12\9---9---|
D|-/14--14--14--14--14\12\9---9---|
A|--------------------------------|
E|--------------------------------|
comments
print report bad tab
2 comments total.
+2 reply
aig91 wrote on February 10 2009, 01:15 pm

This is a great way to play it if you don't feel like tuning your guitar to open E. Nice job, Dave. Sounds perfect to me. :)

0 reply
StraitsSantana wrote on August 19 2009, 09:04 pm

Thanks friend, this is awesome! Ever thought about tabbing all i do? :)

I want to post or [tab]
guest
You may want to rate the tab now too:
select rating
Please do not post tabs as comments. Select "correction" instead!