Oops, an error
Loading. Please wait.

Like A Drug tab

17,166 views 27 this week
1 commentread comment
1 2 3 4 5
x 8
add to favorites
×
Save as Personal and add changes to this tab that will be seen only by you. Learn more ›
×
You can save this tab as Personal to edit and correct it or add notes. All changes will be seen only by you. Learn more »
launch autoscroll
font size
0
reset
how to read this tab
guitar tuner
edit
Autoscroll
slow
fast
+/-
esc
set tempo
stop
Author
Tuned Down a Half-Step (EADGBE)

[Verse] (x4)
This is the basic verse, the first part is repeated a certain
number of times before playing the 2nd part. This number varies
throughout the song, so you'll really need to listen to it.
E|-----0-0------|----------------------------------------------|
B|-----1-1------|----------------------------------------------|
G|-----2-2------|----repeat, then------------------------------|
D|-----2-2------|-----------------------2--2-2-2-0-------------|
A|--0-----------|----------------------------------3-----------|
E|---------0-3--|----------------------------------------------|
   "Since you're gone..."

[Chorus]
This is the basic chorus, it's slightly different each time
they play it so you can improv a little with these notes. The
~ indicates whammy bar.
E|--------------------5--5--------------------5~---------------|
B|--6---5/6-----------5--5-----6---5/6--------5~---------------|
G|--7---6/7---5-7-5---7--5-----7---6/7---7-5--5~---------------|
D|--7---6/7-----------7--7-----7---6/7--------7~---------------|
A|--5---4/5-----------5--7-----5---4/5--------7~---------------|
E|--------------------5--5--------------------5~---------------|
"...say, it wasn't meant to be"

[Verse]
This is the basic verse, the first part is repeated a certain
number of times before playing the 2nd part. This number varies
throughout the song, so you'll really need to listen to it.
E|-----0-0------|----------------------------------------------|
B|-----1-1------|----------------------------------------------|
G|-----2-2------|----repeat, then------------------------------|
D|-----2-2------|-----------------------2--2-2-2-0-------------|
A|--0-----------|----------------------------------3-----------|
E|---------0-3--|----------------------------------------------|
   "Since you're gone..."

[Solo]
E|-----0--7---5-5-7-5--5-3-0-3-0----------0--7------------3-4-5-|
B|--1--5--------------------------------1-5-----5-5-5-5-5-------|
G|-----------------------------------2--------------------------|
D|---------------------------------2----------------------------|
A|--------------------------------------------------------------|
E|--------------------------------------------------------------|

[Chorus]
This is the basic chorus, it's slightly different each time
they play it so you can improv a little with these notes. The
~ indicates whammy bar.
E|--------------------5--5--------------------5~---------------|
B|--6---5/6-----------5--5-----6---5/6--------5~---------------|
G|--7---6/7---5-7-5---7--5-----7---6/7---7-5--5~---------------|
D|--7---6/7-----------7--7-----7---6/7--------7~---------------|
A|--5---4/5-----------5--7-----5---4/5--------7~---------------|
E|--------------------5--5--------------------5~---------------|
"...say, it wasn't meant to be"

[Verse] (x2)
This is the basic verse, the first part is repeated a certain
number of times before playing the 2nd part. This number varies
throughout the song, so you'll really need to listen to it.
E|-----0-0------|----------------------------------------------|
B|-----1-1------|----------------------------------------------|
G|-----2-2------|----repeat, then------------------------------|
D|-----2-2------|-----------------------2--2-2-2-0-------------|
A|--0-----------|----------------------------------3-----------|
E|---------0-3--|----------------------------------------------|
   "Since you're gone..."

[Chorus]
This is the basic chorus, it's slightly different each time
they play it so you can improv a little with these notes. The
~ indicates whammy bar.
E|--------------------5--5--------------------5~---------------|
B|--6---5/6-----------5--5-----6---5/6--------5~---------------|
G|--7---6/7---5-7-5---7--5-----7---6/7---7-5--5~---------------|
D|--7---6/7-----------7--7-----7---6/7--------7~---------------|
A|--5---4/5-----------5--7-----5---4/5--------7~---------------|
E|--------------------5--5--------------------5~---------------|
"...say, it wasn't meant to be"

[Outro]
For the final chord, just bend the whammy bar down slowly
E|--5-----7----------------------------------------------------|
B|--5-----5-----8~---------------------------------------------|
G|--5-----5-----9~---------------------------------------------|
D|--7----------------------------------------------------------|
A|--7----------------------------------------------------------|
E|--5----------------------------------------------------------|



************************************

| ~  Vibrato
| /  Slide up
| repeat, then 

************************************

            
            
Suggest correction
Creating personal tab
Creating personal tab
You can edit any tab online and save it as your Personal.

You can edit, replace or remove any tab part or add personal notes – all changes will be seen only by you.

Personal tabs can be accessed anytime from any device, even offline.
Learn more »
comments
print report bad tab
1 comment total.
0 reply
bensickles 10 Jan 18, 2013 12:12 AM

perfect! thank you

guest
You may want to rate the tab now too:
select rating
Wanna post a correction for this tab? Suggest correction