Oops, an error
Loading. Please wait.

Cha Cha Twist Tab

version 2
version 2

Whole song

Interactive

1,735 views 6 this week
no commentswrite comment
1 2 3 4 5
please rate
add to favorites
launch autoscroll
font size
0
reset
how to read this tab
guitar tuner
Tab Pro tools
  • play this tab
  • loop segment
  • change instrument
  • show fretboard
  • metronome
×
Best way to learn
"Cha Cha Twist"
Autoscroll
slow
fast
+/-
esc
set tempo
stop
Difficulty
intermediate
The Detroit Cobras
Cha Cha Twist
2004

Tuning: Standard
                         
Bass intro, then:
eb--------------------------|  \
Bb--------------------------|   \
Gb-33-xx-66-xx-88-xx-66-xx--|    \   7x
Db-33-xx-66-xx-88-xx-66-xx--|    /     
Ab-11-xx-44-xx-66-xx-44-xx--|   /
Eb--------------------------|  /

0:36
eb-------------------|
Bb-------------------|
Gb-3-3-3-3-3-3-3-3-3-|
Db-3-3-3-3-3-3-3-3-3-|
Ab-1-1-1-1-1-1-1-1-1-|
Eb-------------------|

1:18
eb---------------------|
Bb-12-10---------------|
Gb-------11-10-9-7-----|
Db------------------9--|
Ab---------------------|
Eb---------------------|

Chorus:
eb---------------------------|
Bb---------------------------|
Gb-8-8-8-8-8-8-8-8-----------|
Db-8-8-8-8-8-8-8-8-----------|
Ab-6-6-6-6-6-6-6-6---------6-|
Eb-----------------9-6-9-----|

comments
We did not receive enough feedback on this tab! Please rate:
print report bad tab
1 2 3 4 5
I want to post or [tab]
guest
You may want to rate the tab now too:
select rating
Please do not post tabs as comments. Select "correction" instead!