Oops, an error
Loading. Please wait.

Beneath The Piano tab

version 1
version 1

Whole song

Interactive

996 views 12 this week
no commentswrite comment
1 2 3 4 5
3 more votes to show rating
add to favorites
×
Save as Personal and add changes to this tab that will be seen only by you. Learn more ›
×
You can save this tab as Personal to edit and correct it or add notes. All changes will be seen only by you. Learn more »
launch autoscroll
font size
0
reset
how to read this tab
guitar tuner
edit
Autoscroll
slow
fast
+/-
esc
set tempo
stop
Author
The Devil Makes Three - The Devil Makes Three
3. Beneath the Piano

118 bpm
4/4

------------------------------------------------------------------------------------

[Intro] - | E7 | A7 | E7 | B7 | E7 | A7 | E7 B7 | E7 | 
                                                            P.M. -Cresc.
e |---0---0---0---0-|---------5-5-----|---0---0---0---0-|-----------------|
B |---3---3---3---3-|---5---8-5-5-8-5-|---3---3---3---3-|---0---0-----0---|
G |---1-X-1---1-X-1-|---6-X-6-6-6-6-6-|---1-X-1---1-X-1-|---2-X-2-2-2-2---|
D |---0-X-0---0-X-0-|---7-X-7-7-7-7-7-|---0-X-0---0-X-0-|---1-X-1-1-1-1---|
A |---2-X-2---2-X-2-|-0---X---0-0-0-0-|---2-X-2---2-X-2-|-2---X-----------|
E |-0-------0-------|-----------------|-0-------0-------|-----------------|

e |---0---0---0-----|-----------------|---0---0---------|--0---0---0-0-0--|
B |---3---3---3---3-|---5---8---8-7-5-|---3---3---0---0-|--3---3---3-3-3-2|
G |---1-X-1---1---X-|---6-X-6-X-6-6-6-|---1-X-1---2-X-2-|--1-X-1---1-1-1-0|
D |---0-X-0---0---0-|---7-X-7-X-7-7-7-|---0-X-0---1-X-1-|--0-X-0---0-0-0-0|
A |---2-X-2---2-2-1-|-0---X---X-------|---2-X-2-2---X---|--2-X-2---2-2-2-1|
E |-0-------0-------|-----------------|-0---------------|0-------0--------|

[Verse 1] - | E7 | A7 | E7 | B7 | x2                 | E | C | B D | E | x2

e |---0---0---0---0-|---------5-5-----|---0---0---0---0-|-----------------|
B |---3---3---3---3-|---5---8-5-5-8-5-|---3---3---3---3-|---0---0---0---0-|
G |---1-X-1---1-X-1-|---6-X-6-6-6-6-6-|---1-X-1---1-X-1-|---2-X-2---2-X-2-|
D |---0-X-0---0-X-0-|---7-X-7-7-7-7-7-|---0-X-0---0-X-0-|---1-X-1---1-X-1-|
A |---2-X-2---2-X-2-|-0---X-----------|---2-X-2---2-X-2-|-2---X---2---X---|
E |-0-------0-------|-----------------|-0-------0-------|-----------------|

e |---0---0---0---0-|-----------------|---0---0---0---0-|-----------------|
B |---3---3---3---3-|---5---8---8---5-|---3---3---3---3-|---0---0---0---0-|
G |---1-X-1---1-X-1-|---6-X-6---6-X-6-|---1-X-1---1-X-1-|---2-X-2---2-X-2-|
D |---0-X-0---0-X-0-|---7-X-7---7-X-7-|---0-X-0---0-X-0-|---1-X-1---1-X-1-|
A |---2-X-2---2-X-2-|-0---X---0---X---|---2-X-2---2-X-2-|-2---X---2---X---|
E |-0-------0-------|-----------------|-0-------0-------|-----------------|

e |---0---0---0---0-|-----------------|-----------------|-----------0---0-|
B |---3---3---3---3-|---5---5---5---5-|---4---4---7---7-|---3---3---3---3-|
G |---1-X-1---1-X-1-|---3-X-3---3-X-3-|---2-X-2---5-X-5-|---1-X-1---1-X-1-|
D |---0-X-0---0-X-0-|---5-X-5---5-X-5-|---4-X-4---7-X-7-|---0-X-0---0-X-0-|
A |---2-X-2---2-X-2-|-3---X---3---X---|-2---X---5---X---|---2-X-2---2-X-2-|
E |-0-------0-------|-----------------|-----------------|-0-------0-------|

e |---0---0---0---0-|-----------------|-----------------|-----------0---0-|
B |---3---3---3---3-|---5---5---5---5-|---4---4---7---7-|---3---3---3---3-|
G |---1-X-1---1-X-1-|---3-X-3---3-X-3-|---2-X-2---5-X-5-|---1-X-1---1-X-1-|
D |---0-X-0---0-X-0-|---5-X-5---5-X-5-|---4-X-4---7-X-7-|---0-X-0---0-X-0-|
A |---2-X-2---2-X-2-|-3---X---3---X---|-2---X---5---X---|---2-X-2---2-X-2-|
E |-0-------0-------|-----------------|-----------------|-0-------0-------|

[Verse 2] - | E7 | A7 | E7 | B7 | x2                 | E | C | B D | E | x2

e |---0---0---0---0-|-----------------|---0---0---0---0-|-----------------|
B |---3---3---3---3-|---5---8-5-5-8-5-|---3---3---3---3-|---0---0---0---0-|
G |---1-X-1---1-X-1-|---6-X-6-6-6-6-6-|---1-X-1---1-X-1-|---2-X-2---2-X-2-|
D |---0-X-0---0-X-0-|---7-X-7-7-7-7-7-|---0-X-0---0-X-0-|---1-X-1---1-X-1-|
A |---2-X-2---2-X-2-|-0---X-----------|---2-X-2---2-X-2-|-2---X---2---X---|
E |-0-------0-------|-----------------|-0-------0-------|-----------------|

e |---0---0---0---0-|-----------------|---0---0---0---0-|-----------------|
B |---3---3---3---3-|---5---8---8---5-|---3---3---3---3-|---0---0---0---0-|
G |---1-X-1---1-X-1-|---6-X-6---6-X-6-|---1-X-1---1-X-1-|---2-X-2---2-X-2-|
D |---0-X-0---0-X-0-|---7-X-7---7-X-7-|---0-X-0---0-X-0-|---1-X-1---1-X-1-|
A |---2-X-2---2-X-2-|-0---X---0---X---|---2-X-2---2-X-2-|-2---X---2---X---|
E |-0-------0-------|-----------------|-0-------0-------|-----------------|

e |---0---0---0---0-|-----------------|---0---0---0---0-|-----------------|
B |---3---3---3---3-|---5---8-5-5-8-5-|---3---3---3---3-|---0---0---0---0-|
G |---1-X-1---1-X-1-|---6-X-6-6-6-6-6-|---1-X-1---1-X-1-|---2-X-2---2-X-2-|
D |---0-X-0---0-X-0-|---7-X-7-7-7-7-7-|---0-X-0---0-X-0-|---1-X-1---1-X-1-|
A |---2-X-2---2-X-2-|-0---X-----------|---2-X-2---2-X-2-|-2---X---2---X---|
E |-0-------0-------|-----------------|-0-------0-------|-----------------|

e |---0---0---0---0-|--------/8-------|-----------------|-----------0---0-|
B |---3---3---3---3-|-------5-----5---|---4---4---7---7-|---3---3---3---3-|
G |---1-X-1---1-X-1-|-----5-----------|---2-X-2---5-X-5-|---1-X-1---1-X-1-|
D |---0-X-0---0-X-0-|---5-------------|---4-X-4---7-X-7-|---0-X-0---0-X-0-|
A |---2-X-2---2-X-2-|-3---------------|-2---X---5---X---|---2-X-2---2-X-2-|
E |-0-------0-------|-----------------|-----------------|-0-------0-------|

e |---0---0---0---0-|--------/8-------|-----------------|-----------0---0-|
B |---3---3---3---3-|-------5-----5---|---4---4---7---7-|---3---3---3---3-|
G |---1-X-1---1-X-1-|-----5-----------|---2-X-2---5-X-5-|---1-X-1---1-X-1-|
D |---0-X-0---0-X-0-|---5-------------|---4-X-4---7-X-7-|---0-X-0---0-X-0-|
A |---2-X-2---2-X-2-|-3---------------|-2---X---5---X---|---2-X-2---2-X-2-|
E |-0-------0-------|-----------------|-----------------|-0-------0-------|

[Verse 3] - | E7 | A7 | E7 | B7 | x2                 | E | C | B D | E | x2

e |---0---0---0---0-|---------5-5-----|---0---0---0---0-|-----------------|
B |---3---3---3---3-|---5---8-5-5-8-5-|---3---3---3---3-|---0---0---0---0-|
G |---1-X-1---1-X-1-|---6-X-6-6-6-6-6-|---1-X-1---1-X-1-|---2-X-2---2-X-2-|
D |---0-X-0---0-X-0-|---7-X-7-7-7-7-7-|---0-X-0---0-X-0-|---1-X-1---1-X-1-|
A |---2-X-2---2-X-2-|-0---X-----------|---2-X-2---2-X-2-|-2---X---2---X---|
E |-0-------0-------|-----------------|-0-------0-------|-----------------|

e |---0---0---0---0-|-----------------|---0---0---0---0-|-----------------|
B |---3---3---3---3-|---5---8---8---5-|---3---3---3---3-|---0---0---0---0-|
G |---1-X-1---1-X-1-|---6-X-6---6-X-6-|---1-X-1---1-X-1-|---2-X-2---2-X-2-|
D |---0-X-0---0-X-0-|---7-X-7---7-X-7-|---0-X-0---0-X-0-|---1-X-1---1-X-1-|
A |---2-X-2---2-X-2-|-0---X---0---X---|---2-X-2---2-X-2-|-2---X---2---X---|
E |-0-------0-------|-----------------|-0-------0-------|-----------------|

e |---0---0---0---0-|---------5-5-----|---0---0---0---0-|-----------------|
B |---3---3---3---3-|---5---8-5-5-8-5-|---3---3---3---3-|---0---0---0---0-|
G |---1-X-1---1-X-1-|---6-X-6-6-6-6-6-|---1-X-1---1-X-1-|---2-X-2---2-X-2-|
D |---0-X-0---0-X-0-|---7-X-7-7-7-7-7-|---0-X-0---0-X-0-|---1-X-1---1-X-1-|
A |---2-X-2---2-X-2-|-0---X-----------|---2-X-2---2-X-2-|-2---X---2---X---|
E |-0-------0-------|-----------------|-0-------0-------|-----------------|

e |---0---0---0---0-|-----------------|---0---0---0---0-|-----------------|
B |---3---3---3---3-|---5---8---8---5-|---3---3---3---3-|---0---0---0---0-|
G |---1-X-1---1-X-1-|---6-X-6---6-X-6-|---1-X-1---1-X-1-|---2-X-2---2-X-2-|
D |---0-X-0---0-X-0-|---7-X-7---7-X-7-|---0-X-0---0-X-0-|---1-X-1---1-X-1-|
A |---2-X-2---2-X-2-|-0---X---0---X---|---2-X-2---2-X-2-|-2---X---2---X---|
E |-0-------0-------|-----------------|-0-------0-------|-----------------|


e |---0---0---0---0-|--------/8-------|-----------------|-----------0---0-|
B |---3---3---3---3-|-------5-----5---|---4---4---7---7-|---3---3---3---3-|
G |---1-X-1---1-X-1-|-----5-----------|---2-X-2---5-X-5-|---1-X-1---1-X-1-|
D |---0-X-0---0-X-0-|---5-------------|---4-X-4---7-X-7-|---0-X-0---0-X-0-|
A |---2-X-2---2-X-2-|-3---------------|-2---X---5---X---|---2-X-2---2-X-2-|
E |-0-------0-------|-----------------|-----------------|-0-------0-------|

                     P.M. Cresc.
e |---0---0---0---0-|-----------------|-----------------|-----------0---0-|
B |---3---3---3---3-|-------5-5-5-5-5-|---4---4---7---7-|---3---3---3---3-|
G |---1-X-1---1-X-1-|-----3-3-3-3-3-3-|---2-X-2---5-X-5-|---1-X-1---1-X-1-|
D |---0-X-0---0-X-0-|---5-----5-5-5---|---4-X-4---7-X-7-|---0-X-0---0-X-0-|
A |---2-X-2---2-X-2-|-3---------------|-2---X---5---X---|---2-X-2---2-X-2-|
E |-0-------0-------|-----------------|-----------------|-0-------0-------|


[Outro] | E7 | C | B D | E |

e |---0---0---0---0-|-----------------|-----------------|---------------0-|
B |---3---3---3---3-|---5---5---5---5-|---4---4---7---7-|---3---3-3-3-2-3-|
G |---1-X-1---1-X-1-|---3-X-3---3-X-3-|---2-X-2---5-X-5-|---1-X-1-1-1-0-1-|
D |---0-X-0---0-X-0-|---5-X-5---5-X-5-|---4-X-4---7-X-7-|---0-X-0-0-0-0-0-|
A |---2-X-2---2-X-2-|-3---X---3---X---|-2---X---5---X---|---2-X-2-2-2-1-2-|
E |-0-------0-------|-----------------|-----------------|-0-------------0-|

------------------------------------------------------------------------------------

[Verse 1]
Well I've been going for a couple of years
And it seems that the answer it is coming quite clear
Oh I don't even know what I am doing here
But I can drive with my eyes closed
And play by ear
And I can sleep beneath the piano
Just like that's my natural home
With all those keys I never feel alone
Yes I can sleep beneath the piano
Just like that's my natural home
With all those keys I never feel alone

[Verse 2]
I met a girl in a sleepy town down by the sea
She swore she didn't want nothing from me
Now if you ever hear that line boy don't you dare believe
There ain't nothing but deep blues down in that bitter recipe
And when I left town she had those tears in her eyes
But, I ain't one for no emotional goodbyes
So she swam into that bottle like a fish back to its home
Couple more drinks and you don't know she's alone
Yeah she swam into that bottle like a fish back to the sea
Couple more drinks and she forgot all about me

[Verse 3]
Met a lot of guys a lot tougher than me
It's like it ain't no kinda competition indeed
They say "hey boy have you ever been stabbed before"
I said "not yet, I'm grabbin' my hat and just heading for the door"
I made my way down to that rich side of town
Where everybody's tossin' big words around
But as soon as I turn my back to head downtown
I hear those whispers like rain just fallin' on down
Say he drink like a fish and he gonna fly like a stone
Boy is better off left alone
Say he drink like a fish and he gonna fly like a stone
Boy is better off left alone

-------------------------------------------------------

Please rate and comment any suggestions/corrections!
Contact me: graden.t.hill@gmail.com

-------------------------------------------------------

            
            
Suggest correction
Creating personal tab
Creating personal tab
You can edit any tab online and save it as your Personal.

You can edit, replace or remove any tab part or add personal notes – all changes will be seen only by you.

Personal tabs can be accessed anytime from any device, even offline.
Learn more »
Give kudos to tab author, rate the tab!
1 2 3 4 5
comments
print report bad tab
guest
You may want to rate the tab now too:
select rating
Wanna post a correction for this tab? Suggest correction