Oops, an error
Loading. Please wait.

The Plank tab

version 2
version 2

Whole song

  • This version has easier hand movements, added chor... Show more
1,015 views 9 this week
no commentswrite comment
1 2 3 4 5
1 last vote to show rating
add to favorites
×
Save as Personal and add changes to this tab that will be seen only by you. Learn more ›
×
You can save this tab as Personal to edit and correct it or add notes. All changes will be seen only by you. Learn more »
launch autoscroll
font size
0
reset
how to read this tab
guitar tuner
edit
Autoscroll
slow
fast
+/-
esc
set tempo
stop
Author
Difficulty
About this tab version
This version has easier hand movements, added chord names and is set to a timing. Was this info helpful? Yes No
First tab, go easy.
This song is pretty much this riff the entire way throughout, Original tab credit goes to nikka_le200.I just
wanted to modify and clarify a little bit to a method that I find easier to play while singing, so my hand 
isn't moving all up and down the fretboard all the time. Everything has been timed, the first row of "-" is 
just to make it easier to see the first notes and ignored for timing purposes.

BPM = ~180 

Intro/Verse

♪ = "-"
   Em/B            C7      Bsus4
e|----------------------------0~---|
B|---8---8---8----------------0~---|
G|---9---9---9-------3-34~-4-44~---|
D|---9---9---9-------2-22~-44-4----|
A|-7-------7-------3-3-33~-2--2----|
E|-----7-------7-3-----------------| X4, then 2nd guitar enters, X4 more until Chorus.

This note right here ---^^ creates the awesome discordant closure notes that can be difficult to add every 
time, but it definitely adds some character.


Chorus
simplified from original tab, really just makes it easier to read what the chords are, mess around with them 
how you feel you should, this isn't exactly a super clean, precise sounding song.

♪ = "-"
   Em/B            Aadd2   C   B
e|---------------------------------|
B|---8---8---8---8---0---0---------|
G|---9---9---9---9---5---5---9---8-|
D|---9---9---9---9---7---7---10--9-|
A|-7-------7---------7---7---10--9-|
E|-----7-------7---5---5---8---7---|


This can also be played more dramatically with some discord as follows

♪ = "-"
   Em/B            A7      C7  B7
e|---------------------------------|
B|---8---8---8---8---5---5---8---7-|
G|---9---9---9---9-----------------|
D|---9---9---9---9---5---5---8---7-|
A|-7-------7---------4---4---7---6-|
E|-----7-------7---5---5---8---7---|


2nd Guitar Part (Optional)

This is during the "Hmmm" 'bridge' part, also played during the chorus.
Taken from nikka_le200's tab, added chord names and set in time

♪ = "--"
   Em                              Em/G            B                      
e|-----------------------------------------------------------------|
B|---0-------0------0--------0-----------0-------0---7-------7-----|
G|-------0-------0-------0-------0---9-------9-----------8-------8-|
D|-------------------------------------------------9---9---9---9---|
A|-7---7---7---7---7---7---7---7---10--10--10--10------------------|
E|-----------------------------------------------------------------|

            
            
Suggest correction
Creating personal tab
Creating personal tab
You can edit any tab online and save it as your Personal.

You can edit, replace or remove any tab part or add personal notes – all changes will be seen only by you.

Personal tabs can be accessed anytime from any device, even offline.
Learn more »
Give kudos to tab author, rate the tab!
1 2 3 4 5
comments
print report bad tab
guest
You may want to rate the tab now too:
select rating
Wanna post a correction for this tab? Suggest correction