Oops, an error
Loading. Please wait.

Anatomy tab

version 1
version 1

Whole song

Interactive

35,831 views 21 this week
6 commentsread comments
1 2 3 4 5
x 16
add to favorites
×
Save as Personal and add changes to this tab that will be seen only by you. Learn more ›
×
You can save this tab as Personal to edit and correct it or add notes. All changes will be seen only by you. Learn more »
launch autoscroll
font size
0
reset
how to read this tab
guitar tuner
edit
Autoscroll
slow
fast
+/-
esc
set tempo
stop
Author
-------------------------------------------------------------------------------
			     Anatomy - The Devil Wears Prada
-------------------------------------------------------------------------------
Tabbed by: Rsxkilla
Email: gpknights19@hotmail.com

Tuning: DROP B

youtube cover: http://www.youtube.com/watch?v=v3ER33iCbLk

since making my tab and video.. iv been practicing and listening to the song some more 
this is an update with what iv got for the guitar parts as of now. Oct 24, 2010

      Intro 0:00-0:27
C#|-------------------------------------------------------------|
G#|-------------------------------------------------------------|
E |----------------------------------8-8------------------------|
B |--0-------1-------1-0------0------8-8------1------4----------|
F#|--0--0-0--1--0-0--1-0--0-0-0--0-0-6-6--0-0-1--0-0-4----------|
B |--0--0-0--1--0-0--1-0--0-0-0--0-0------0-0-1--0-0-4----------|x6
(2nd guitar comes in with an open chord at the 3rd repeat then pick slides into the riff)


         0:28-0:40
C#|-------------------------------------------------------------|
G#|-------------------------------------------------------------|
E |-------------------------------------------------------------|
B |--0-0-----------0-0------------------------------------------|
F#|--0-0--0-0-0-0--0-0------------0-0-0-0--5--------------------|
B |--0-0--0-0-0-0--0-0------------0-0-0-0-----0-0-7h8-----------|

C#|-------------------------------------------------------------|
G#|-------------------------------------------------------------|
E |-------------------------------------------------------------|
B |--0-0-----------0-0------------------------------------------|
F#|--0-0--0-0-0-0--0-0-----------0-0-0-0------------------------|
B |--0-0--0-0-0-0--0-0-----------0-0-0-0--8--0-0-4h5------------|

C#|-------------------------------------------------------------|
G#|-------------------------------------------------------------|
E |-------------------------------------------------------------|
B |--0-0-----------0-0------------------------------------------|
F#|--0-0--0-0-0-0--0-0----------0-0-0-0--8----------------------|
B |--0-0--0-0-0-0--0-0----------0-0-0-0-----0-0-10h12-----------|(2nd guitar 
repeats the 2 previous bars)

C#|-------------------------------------------------------------|
G#|-------------------------------------------------------------|
E |-------------------------------------------------------------|
B |--0-0-----------0-0------------------------------------------|
F#|--0-0--0-0-0-0--0-0------------0-0-0-0--5--------------------|
B |--0-0--0-0-0-0--0-0------------0-0-0-0-----0-0-7h8-----------|

	0:41-53
C#|-------------------------------------------------------------|
G#|-------------------------------------------------------------|
E |-------------------------------------------------------------|
B |-------------------------------------------------------------|
F#|--9-------9-------9h10p9-----8--8---------8~~~~--------------|
B |----0-0-0---0-0-0--------0-0------0-0-0-0--------------------|x2
 

         (2nd guitar repeats the above riff again)
C#|-------------------------------------------------------------|
G#|-------------------------------------------------------------|
E |-------------------------------------------------------------|
B |-------------------------------------------------------------|
F#|--13-------13-------13h15p13-----12--12---------12~~~~-------|
B |-----0-0-0----0-0-0----------0-0--------0-0-0-0--------------|x2

	0:54-57 (breakdown rhythm may be slightly off)
C#|-------------------------------------------------------------|
G#|-------------------------------------------------------------|
E |-------------------------------------------------------------|
B |-0-----------------------------------------------------------|
F#|-0---0-0----------0-0-----------0-0--------------------------|
B |-0---0-0--0-0-0-0-0-0---0-0-0-0-0-0--------------------------|

	0:58-1:17
C#|-------------------------------------------------------------|
G#|-------------------------------------------------------------|
E |-------------------------------------------------------------|
B |-0~--------0~--0-0------0~-0~-0------0~--4--0--1--4~---------|
F#|-0~-0--0-0-0~--0-0--0-0-0~-0~-0--0-0-0~--4--0--1--4~---------|
B |-0~-0--0-0-0~--0-0--0-0-0~-0~-0--0-0-0~--4--0--1--4~---------|

C#|-------------------------------------------------------------|
G#|-------------------------------------------------------------|
E |-------------------------------------------------------------|
B |-0~--------0~--0-0------0~-0~-0------0~--4--0--1~~~~---------|
F#|-0~-0--0-0-0~--0-0--0-0-0~-0~-0--0-0-0~--4--0--1~~~~---------|
B |-0~-0--0-0-0~--0-0--0-0-0~-0~-0--0-0-0~--4--0--1~~~~---------|


C#|-------------------------------------------------------------------|
G#|-------------------------------------------------------------------|
E |-------------------------------------------------------------------|
B |-------------------------------------------------------------------|
F#|-0--4h7---0-5h8----4h7---0-5h8---4h7----0-5h8----4h7---------------|
B |-0------0-0------0-----0-0-----0------0-0-----0--------------------|(1st guitar)

C#|-------------------------------------------------------------|
G#|-------------------------------------------------------------|
E |-------------------------------------------------------------|
B |-0------0----0-----------------------------------------------|
F#|-0--0-0-0----0--0-0-0--0-0-0--0-0-0---------0-0-0------------|
B |-0--0-0-0----0--0-0-0--0-0-0--0-0-0---0-0---0-0-0------------|(2nd guitar)

C#|----------------------|
G#|----------------------|
E |----------------------|
B |-0--------------------|
F#|-0--0-0-0--0-0-0------|
B |-0--0-0-0--0-0-0------|
	1:18-:24

		(third guitar plays the same breakdown over this section)
C#|-----------------------------------------------------------------------|
G#|-----------------------------------------------------------------------|
E |-----------------------------------------------------------------------|
B |-----------------------------------------------------------------------|
F#|-0--5h8---4h7----0-5h8---4h7---0-5h8---4h7----0-5h8--------------------|
B |-0------0------0-0-----0-----0-0-----0------0-0--------0-0-0-0-0-0-0-0-|(1st guitar)

C#|--------------------------------------------------------------------------|
G#|--------------------------------------------------------------------------|
E |--------------------------------------------------------------------------|
B |--------------------------------------------------------------------------|
F#|-0--8h12---7h10---0-8h12---7h10--0-8h12--7h10----0-8h12-------------------|
B |-0-------0------0-0------0-----0-0------0------0-0--------0-0-0-0-0-0-0-0-|(2nd guitar)
	1:25-:51
C#|-------------------------------------------------------------|
G#|-------------------------------------------------------------|
E |----------------------------------8-8------------------------|
B |--0-------1-------1-0------0------8-8------1------4----------|
F#|--0--0-0--1--0-0--1-0--0-0-0--0-0-6-6--0-0-1--0-0-4----------|(guitar 1 repeats 3 times)
B |--0--0-0--1--0-0--1-0--0-0-0--0-0------0-0-1--0-0-4----------|x3

C#|-----------------------------|
G#|-----------------------------|
E |-----------------------------|
B |--0-------1-------1-0--------|
F#|--0--0-0--1--0-0--1-0-0------|
B |--0--0-0--1--0-0--1-0-0------|(guitar 2 plays this on the 3rd repeat)

C#|--------------------------------------------|
G#|--------------------------------------------|
E |--------------------------------------------|
B |--0-------1-------1-0-----------------------|
F#|--0--0-0--1--0-0--1-0-0------------8\3---3--|
B |--0--0-0--1--0-0--1-0-0---0--8--0------3----|

C#|----------------------------------------|
G#|----------------------------------------|
E |----------------------------------------|
B |---------------------7----------8-------|
F#|--------8\3---3-----------5-------------|
B |--8--0------3----0-----5-----5----5-----|4x

	1:52-2:16
C#|--------------------------------------------------|
G#|--------------------------------------------------|
E |--------------------------------------------------|
B |--------------------------------------------------|
F#|--0--------------------------------------1-1-4-0--|
B |--0---3b---0---1b---0---3b---0---1b---0-----------|4x

C#|-----------------------------|-------------|
G#|-----------------------------|-------------|
E |-----------------------------|-------------|
B |-----------------------------|-------------|
F#|--0---0---0---0------1-1-4-0-|--0---0--0-0-|(2nd guitar repeats the previous bar)
B |--0---0---0---0---0----------|--0---0--0-0-|4x(fourth time play 2nd ending)

	2:16-2:42
C#|---------|
G#|---------|
E |---------|
B |--0~-----|(guitar 1 plays this 8 times)
F#|--0~-----|(guitar 2 plays this 4 times)
B |--0~-----|8x

C#|--------------------------------------------------|
G#|--------------------------------------------------|
E |--------14----15----14----12----12----12----12h14-|
B |--12-12----12----12----12----12----12----12-------|
F#|--------------------------------------------------|(guitar 2)
B |--------------------------------------------------|3x

C#|------------------------------|
G#|------------------------------|
E |--------14----15----14--12~---|
B |--12-12----12----12-----------|
F#|------------------------------|
B |------------------------------|

	2:43-3:33
C#|----------------------------------------------------------------|
G#|----------------------6------6-------6-6------------------------|
E |--7-8-7--5-7----------5------5-------5-5------------------------|
B |--x-x-x--x-x-------------------------------8------5------7------|
F#|--5-6-5--3-5-------------------------------8(x12)-5(x12)-7(x12)-|
B |--------------0-0-0-0--0-0-0---0-0-0-------8------5------7------|(4x)

	3:34-3:40

C#|-------------------------------------------------------------|
G#|-------------------------------------------------------------|
E |----------------------------------8-8------------------------|
B |--0-------1-------1-0------0------8-8------1------4----------|
F#|--0--0-0--1--0-0--1-0--0-0-0--0-0-6-6--0-0-1--0-0-4----------|
B |--0--0-0--1--0-0--1-0--0-0-0--0-0------0-0-1--0-0-4----------|

C#|------------------------------------|
G#|------------------------------------|
E |------------------------------------|
B |--0-------1-------1-0---------------|
F#|--0--0-0--1--0-0--1-0--0-0----------|
B |--0--0-0--1--0-0--1-0--0-0----------|

************************************

| /   slide up
| \   slide down
| h   hammer-on
| p   pull-off
| ~   vibrato
| +   harmonic
| x   Mute note
| b   Bend
| pb  Pre-bend
| br  Bend release
| pbr Pre-bend release
| brb Bend release bend

************************************
Suggest correction
Creating personal tab
Creating personal tab
You can edit any tab online and save it as your Personal.

You can edit, replace or remove any tab part or add personal notes – all changes will be seen only by you.

Personal tabs can be accessed anytime from any device, even offline.
Learn more »
comments
print report bad tab
6 comments total. Showing first comments.
0 reply
Schecter1294 10 Sep 13, 2010 04:12 PM

Nevermind you tube was telling me wrong sorry... haha

+1 reply
Nor'Easterbass 292 Oct 12, 2010 04:13 AM

5/5 but a couple of your parts are a little off. worst one is the 2:43 to 3:33 section. idk if its just tabbed weird but the progression changes a bit and you can hear it pretty clearly that it doesn't repeat the same thing for 50 seconds. just saying. other than that great tab man.

+1 reply
rsxkilla 253 Oct 12, 2010 10:01 AM

the rhythm part should be right, the lead riffs and temelos are very hard to hear in the recording im sorry i wasnt able to get them

guest
You may want to rate the tab now too:
select rating
Wanna post a correction for this tab? Suggest correction