Oops, an error
Loading. Please wait.

Ben Has A Kid tab

version 3
version 3

Whole song

Interactive

13,691 views 1 this week
no commentswrite comment
1 2 3 4 5
x 9
add to favorites
×
Save as Personal and add changes to this tab that will be seen only by you. Learn more ›
×
You can save this tab as Personal to edit and correct it or add notes. All changes will be seen only by you. Learn more »
launch autoscroll
font size
0
reset
how to read this tab
guitar tuner
edit
Autoscroll
slow
fast
+/-
esc
set tempo
stop
Artist: The Devil Wears Prada
Song: Ben Has a Kid
Album: With Roots Above and Branches Below

Tuning Drop D:

D A D G B E

This song has a lot of delay
That's pretty much it

Watch this cover if you wanna see how it's played

http://www.youtube.com/watch?v=FCgrog2FiF8

I played some parts sliiiiiiightly differently
I've made changes concerning accuracy in this tab since then


e|--0-0-0-0-----0-0-0-0--------|
B|--6-6-6-6-----6-6-6-6--------|
G|--7-7-7-7-----7-7-7-7--------|
D|-----------------------------|
A|----------0-0---------0------|
D|----------0-0---------0------|
            * *         *


e|--0-----------|
B|--6-----------|
G|--9---x16-----|
D|--------------|
A|--------------|
D|--------------|

You can play an 8 and 7 barre power chord instead of
those octave chords if it sounds better to you

e|-------------------------------------------------------------|
B|------------------------------------Repeat-twice-------------|
G|--------------10----9----------------------------------------|
D|--8-7/12-0-----X----X—-7h8p7-5-------------------------------|
A|--8-7/12-0-000-8-00-7----------8-------------0-00-00-0-00-00-|
D|--8-7/12-0-000---00--------------88888888-7\-0-00-00-0-00-00-|
             ***   **              ********    * ** ** * ** **

e|------------------------|
B|------------------------|
G|------------------------|
D|---------0-8-7-5-3---2--|
A|-0-00-00-0-8-7-5-3---2--|
D|-0-00-00-0-8-7-5-3---2--|
   * ** **

Repeat this bar twice
Palm mute accordingly

e|-------the-multipliers-are-just-to-help-you-read-the-numbers-better---------------|
B|----------------------------------------------------------------------------------|
G|----------------------------------------------------------------------------------|
D|---x8------x4---x2---------x16----------x8-----x4---x4---x4--------x6-------------|
A|-------------------------------------------------------------7h8--------7h8p7-----|
D|-00000000-3333-2222-3333333333333333-55555555-8888-7777-5555-----555555-----------|

e|----------------------------------------------------|
B|----------------------------------------------------|
G|----------------------------------------------------|
D|----------------------------------------------------|
A|-0000-0--0000-0----0000-0-0000-0---0----------------|
D|-0000-0--0000-0----0000-0-0000-0---1----------------|
   **** *  **** *    **** * **** *   *

PH = Pinch Harmonic

e|----------------------------------------------------|
B|----------------------------------------------------|
G|----------------------------------------------------|
D|----------------PH-----PH---------------------------|
A|----------------------------------------------------|
D|--0000-0--0000-0-8^*-0-10^*--0000-0--0000-0---------|
    **** *  **** *     *       **** *  **** *

With delay

e|--0-----------|
B|--6-----------|
G|--9---x16-----|
D|--------------|
A|--------------|
D|--------------|

Watch the Studio Update 3 (http://www.youtube.com/watch?v=3Q4Vy3UP8OY&feature=related) 
he does do those pull offs

Repeat the following 2 bars 4 times
With delay LET RING

e|------------8p0------------------10p0--------------|
B|----6---6-------6--------6---6--------6------------|
G|--7---7---7-------7----7---7---7--------7----------|
D|---------------------------------------------------|
A|---------------------------------------------------|
D|---------------------------------------------------|
    * * * * *            * * * * *

e|-----------------15p0---------------------------12h13-12\-|
B|-----13----13---------13------------13----13--------------|
G|--14----14----14---------14------14----14----14-----------|
D|----------------------------------------------------------|
A|----------------------------------------------------------|
D|----------------------------------------------------------|
     *  *  *  *  *                  *  *  *  *  *

With delay

e|--10-many-times-eventually fading out---------------|
B|----------------------------------------------------|
G|----------------------------------------------------|
D|----------------------------------------------------|
A|----------------------------------------------------|
D|----------------------------------------------------|

Repeat 4 times

e|----------------------------------------------------|
B|----------------------------------------------------|
G|-----------------------x16--------------------------|
D|--0-------------------------------------------------|
A|--0-0-0-\5-5-5-5-5-5-5-5-5-5-5-5-5-5^-5^-5^---------|
D|--0-0-0---------------------------------------------|
      * *

End in

e|-----------------------0----------------------------|
B|---5*------------------0----------------------------|
G|---5*-(harmonics)--or--0—which also fits------------|
D|---5*-----------------------------------------------|
A|----------------------------------------------------|
D|----------------------------------------------------|

Then repeat again 4 times

e|------------------------------------------------------------|
B|------------------------------------------------------------|
G|------------------------------x16---------------------------|
D|--0---------------------------------------------------------|
A|--0-0-0-----------------------------------------------------|
D|--0-0-0-/12-12-12-12-12-12-12-12-12-12-12-12-12-12^-12^-12^-|
      * *

e|-----------------|
B|-----------------|
G|-----------------|
D|-----------------|
A|--0--0--0--------|
D|--0--0--0--------|
    *  *  *

e|-----------------------------------------|
B|-----------------------------------------|
G|-------x16-------------------------------|
D|-----------------------------------------|
A|-0000000000000000---4-3-2-1-2---0--------|
D|-0000000000000000---5-4-3-2-3---1--------|
   ****************   * * * * *   *

e|-------------------------------------------|
B|-------------------------------------------|
G|-------x16---------------------------------|
D|-------------------------------------------|
A|-0000000000000000--0--4-3-2-1-2---0--------|
D|-0000000000000011--1--5-4-3-2-3---1--------|
   ****************  *  * * * * *   *

The parentheses is for that that is being played in the background

e|----------------------------------------------------|
B|----------------------------------------------------|
G|----------------------------------------------------|
D|----------------------------------------------------|
A|-0-0-0-0-(0)-(0)-0-0-0-0-(0)-(0)-0-0-(0)-(0)--------|
D|-1-1-1-1-(1)-(1)-1-1-1-1-(1)-(1)-1-1-(1)-(1)--------|
   * * * *  *   *  * * * *  *   *  * *  *   *

e|-----------------------------------------------------------|
B|-----------------------------------------------------------|
G|-----------------------------------------------------------|
D|-----------------------------------------------------------|
A|-0-0-0-0-(0)-(0)-0-0-0-0-(0)-(0)---------------------------|
D|-1-1-1-1-(1)-(1)-1-1-1-1-(1)-(1)-5\-(whammy-down-or-slide)-|
   * * * *  *   *  * * * *  *   *

e|----------------------------------------------------|
B|----------------------------------------------------|
G|----------------------------------------------------|
D|----------------------------------------------------|
A|-0-0-0-0---0-0-0-0—--0-0---0-0-0-0---0-0-0-0---0-0--|
D|-0-0-0-0---0-0-0-0—--0-0---0-0-0-0---0-0-0-0---0-0--|
   * * * *   * * * *   * *   * * * *   * * * *   * *

The first time is played differently
Use delay

e|------------8p0------------------10p0--------------|
B|----6---6-------6--------6---6--------6------------|
G|--7---7---7-------7----7---7---7--------7----------|
D|---------------------------------------------------|
A|---------------------------------------------------|
D|---------------------------------------------------|
    * * * * *            * * * * *

Sure about the 17, but not so sure about the 15...help?

e|-----------------15p0----------------------------17p0-15p0-|
B|-----13----13---------13-------------13----13--------------|
G|--14----14----14---------14-------14----14----14-----------|
D|-----------------------------------------------------------|
A|-----------------------------------------------------------|
D|-----------------------------------------------------------|
     *  *  *  *  *                   *  *  *  *  *

Repeat the following two bars 4 times
Use delay

e|------------8p0------------------10p0--------------|
B|----6---6-------6--------6---6--------6------------|
G|--7---7---7-------7----7---7---7--------7----------|
D|---------------------------------------------------|
A|---------------------------------------------------|
D|---------------------------------------------------|
    * * * * *            * * * * *

e|-----------------15p0---------------------------12h13-12\-|
B|-----13----13---------13------------13----13--------------|
G|--14----14----14---------14------14----14----14-----------|
D|----------------------------------------------------------|
A|----------------------------------------------------------|
D|----------------------------------------------------------|
     *  *  *  *  *                  *  *  *  *  *

Use delay

e|--10-x-16-12-x16-8-x16-10-x16-----------------------|
B|----------------------------------------------------|
G|----------------------------------------------------|
D|----------------------------------------------------|
A|----------------------------------------------------|
D|----------------------------------------------------|

Repeat twice, but the second time around don’t palm mute the 0’s
I have both guitars, play whichever you like

Guitar 1 (lead)

e|-----------------|-------|-------|-------|-------|------------|
B|-----------------|--1st--|--2nd--|--3rd--|--4th--|-----end----|
G|-----------------|--time-|--time-|--time-|--time-|-----in-----|
D|-----------------|-------|-------|-------|-------|------------|
A|-5------8--------|-12-12-|-13-13-|-12-12-|-10-10-|------------|
D|---0000---000000-|-------|-------|-------|-------|-0000-00-00-|
     ****   ******                                   ****

Guitar 2 (rhythm)

e|-----------------|-----|-------|-----|-----|------------|
B|-----------------|1st--|--2nd--|3rd--|4th--|-----end----|
G|-----------------|time-|--time-|time-|time-|-----in-----|
D|-----------------|-----|-------|-----|-----|------------|
A|-1------5--------|-8-8-|-10-10-|-8-8-|-7-7-|------------|
D|---0000---000000-|-----|-------|-----|-----|-0000-00-00-|
     ****   ******                             ****
Suggest correction
Creating personal tab
Creating personal tab
You can edit any tab online and save it as your Personal.

You can edit, replace or remove any tab part or add personal notes – all changes will be seen only by you.

Personal tabs can be accessed anytime from any device, even offline.
Learn more »
comments
print report bad tab
guest
You may want to rate the tab now too:
select rating
Wanna post a correction for this tab? Suggest correction