Oops, an error
Loading. Please wait.

Big Wiggly Style bass

version 1
version 1

Whole song

Interactive

5,682 views 1 this week
no commentswrite comment
1 2 3 4 5
1 last vote to show rating
add to favorites
×
Save as Personal and add changes to this tab that will be seen only by you. Learn more ›
×
You can save this tab as Personal to edit and correct it or add notes. All changes will be seen only by you. Learn more »
launch autoscroll
font size
0
reset
guitar tuner
edit
Autoscroll
slow
fast
+/-
esc
set tempo
stop
This is my first tab. I noticed there wasnt any bass tabs for this song, so I made this 
Im sure its not right, but it sounds pretty good.

Comment for any changes.

The Devil Wears Prada
Big Wiggly Style

Tabber: Nobodyaskedu


I play the intro one of these two ways. It sounds like the second one to me, but its the 
notes, and they both sound pretty cool.

1) G|-----10-9-6------|   2) G|-----------------|
   D|-----------------|      D|-----------------|
   A|-----------------|      A|-----8-7-4-------|
   D|-----------------|      D|-----------------|

-

G|--------------------------------------------------| x4
D|--------------------------------------------------|
A|--------------------------------------------------|
D|-00-00-0-0-00000000---00-00-0-0-0-00000000--------|

G|--------------------------------|
D|--------------------------------|
A|--------------------------------|
D|-0--0-0-0--0--8--8--7-----------|

-

G|---------------------------------------------------------| x3
D|---------------------------------------------------------|
A|---------------------------------------------------------|
D|-0-0-0--0-0-0---------0--0-0--0-0--0-0-0-----------------|

-

G|-------------------------------------------------------| x3
D|-------------------------------------------------------|
A|-------------------------------------------------------|
D|-0-0-0--0-0-0---------0--0-0--0-0--0-0-0--0-0-0-0------|

-

G|---------------------------------------------------------------------|
D|---------------------------------------------------------------------|
A|---------------------------------------------------------------------|
D|-0-0-0--0-0-0---------0--0-0--0-0--0-0-0--0-0-0-0--8--7--5--0--------|

-

G|-------------------------------------------------------------------------|
D|-------------------------------------------------------------------------|
A|-------------------------------------------------------------------------|
D|-3-33333333333333--5-55555555555555--0-00000000000000--0-00000000000000--|

-

G|---------------------------------------------------------------| x2
D|---------------------------------------------------------------|
A|---------------------------------------------------------------|
D|-0--0-0-0-0---0---0----0-0-0-0---0---0----0---0--7-5-3---------|

Same thing next, just slower.

G|---------------------------------------------------------------| x2
D|---------------------------------------------------------------|
A|---------------------------------------------------------------|
D|-0--0-0-0-0---0---0----0-0-0-0---0---0----0---0--7-5-3---------|

-

G|-----------------|
D|-----------------|
A|-----------------|
D|-8-x32-----------|
[Theres 32 of those 8's]

G|---------------------------------------------------------------|
D|---------------------------------------------------------------|
A|---------------------------------------------------------------|
D|-0--------0-0-0---------0-0-0---------0-----0------08----------|

-

This part is strummed fast.

G|----------------------------------|
D|----------------------------------|
A|----------------------------------|
D|-8-x16----7-x16----5-x16----0-x16-|

G|----------------------------------|
D|----------------------------------|
A|----------------------------------|
D|-8-x16----7-x16----5-x16----0-x9--|

-

G|------------------------------------|
D|------------------------------------|
A|------------------------------------|
D|-0---0-0-0---0-0-0------0-0-0-0-0-0-|

-

G|----------------------------------------------------------| x2
D|----------------------------------------------------------|
A|----------------------------------------------------------|
D|-0-0-0-0-0-0-------0-0-0-0--------0-0-0-0-------0-0-------|

-

G|----------------------------------| x4
D|----------------------------------|
A|----------------------------------|
D|-8-x16----7-x16----5-x16----0-x16-|

-

G|--------------------|
D|--------------------|
A|--------------------|
D|-0~---3~-----8~---5~|

-

G|--------------------|
D|--------------------|
A|--------------------|
D|-0-x64--------------|

[Yes, 64 times, im pretty sure thats how many it was.]
-

G|--------------------------------------| x2
D|--------------------------------------|
A|--------------------------------------|
D|-5-x16--8-x16--5-x16--10-x8--12-x8----|

-

G|-------------|
D|-------------|
A|-------------|
D|-0~-------0~-|

            
            
Suggest correction
Creating personal tab
Creating personal tab
You can edit any tab online and save it as your Personal.

You can edit, replace or remove any tab part or add personal notes – all changes will be seen only by you.

Personal tabs can be accessed anytime from any device, even offline.
Learn more »
Give kudos to tab author, rate the tab!
1 2 3 4 5
comments
print report bad tab
guest
You may want to rate the tab now too:
select rating
Wanna post a correction for this tab? Suggest correction