Oops, an error
Loading. Please wait.

Cant Spell Crap Without C tab

5,985 views 1 this week
9 commentsread comments
1 2 3 4 5
x 7
add to favorites
×
Save as Personal and add changes to this tab that will be seen only by you. Learn more ›
×
You can save this tab as Personal to edit and correct it or add notes. All changes will be seen only by you. Learn more »
launch autoscroll
font size
0
reset
how to read this tab
guitar tuner
edit
Autoscroll
slow
fast
+/-
esc
set tempo
stop
-------------------------------------------------------------------------------
                             Can't Spell Crap w/o C! - The Devil Wears Prada
-------------------------------------------------------------------------------
Tabbed by: Darian (http://wwww.deadbolt.creative-illusions.net)
Email:darianln@yahoo.com

Note: This is my first tab...which I did by ear mind you. It's important that you listen 
and figure out the palm rhythms and breakdowns yourself. Whatever, love it or hate it.


| h  hammer-on
| p  pull-off
| .  Mute note
| x2 repeat twice
| \/ slide

Tuning: DROP D!

Intro: repeat twice
(fast picking)
e|---------------------------------------------------------------------------|
B|---------------------------------------------------------------------------|
G|---------------------------------------------------------------------------|
D|-----------------------0-0-0-0--x2-----------------------------------------|
A|---5---4-3-------5-----0-0-0-0---------------------------------------------|
D|0-3--3--3--3-0-3---3---0-0-0-0------6-5-3-/1\3-----------------------------|
                         . . . .


Verse 1: repeat twice
e|---------------------------------------------------------------------------|
B|---------------------------------------------------------------------------|
G|--------------------------------------------------------------------x2-----|
D|---------------------------------------------------------------------------|
A|-----------3--------8----------------------5h6-----------------------------|
D|--000-000-----h5--0--0--5h8--0-3--333--333--------6-5-3-/1\3---------------|
    ... ...         .  .       .    ...  ...

(Figure out the rhythm for the pre-chorus yourself!)


e|---------------------------------------------------------------------------|
B|---------------------------------------------------------------------------|
G|----------------------------------------------x2---------------------------|
D|6--5-3-1-3-1-6-5-3--0000-0000----------------------------------------------|
A|6--5-3-1-3-1-6-5-3--0000-0000----------------------------------------------|
D|6--5-3-1-3-1-6-5-3--0000-0000----------------------------------------------|
                      .... ....
Then the bad ass breakdown! (figure out the rhythm!)

e|---------------------------------------------------------------------------|
B|---------------------------------------------------------------------------|
G|---------------------------------------------------------------------------|
D|000-000-10-10-10--9--9--9-00----10-0000---0000---------7--00---------------|
A|000-000-x--x---x--x--x--x-00--8----0000---0000-blah--8----00-blah----------|
D|000-111-8--8---8--7--7--7-00-------0000---0000------------00---------------|
  ... ...                   ..       ....   ....            ..

"wond by wond"
e|---------------------------------------------------------------------------|
B|---------------------------------------------------------------------------|
G|---------------------------------------------------------------------------|
D|101010--9-9-9--1010-10--12--12-12--141414----------------------------------|
A|x-x-x---x-x-x--x-x--x----x---x--x---x-x-x----------------------------------|
D|8-8-8---7-7-7--8-8--8---10--10-10--121212----------------------------------|


Then the badass riff. (repeat it a lot)
e|---------------------------------------------------------------------------|
B|---------------------------------------------------------------------------|
G|---------------------------------------------------------------------------|
D|---------------------------------------------------------------------------|
A|---------------------------------------------------------------------------|
D|12-0000-12h13h12--0000--3h4h3--0000--5-00-4-00-3--12-0000--12h13h12--0000--|
     ....           ....         ....    ..   ..       ....            ....
e|---------------------------------------------------------------------------|
B|---------------------------------------------------------------------------|
G|---------------------------------------------------------------------------|
D|-------------3--0----15-15--15-0---15-0--14-0--14--0---16------------------|
A|-------------3--0----14-14--14-0---14-0--13-0--14--0---15------------------|
D|5-00-4-0000--3--0----13-13--13-0---13-0--12-0--13--0---14------------------|
    ..   ....


===============================================================================
Suggest correction
Creating personal tab
Creating personal tab
You can edit any tab online and save it as your Personal.

You can edit, replace or remove any tab part or add personal notes – all changes will be seen only by you.

Personal tabs can be accessed anytime from any device, even offline.
Learn more »
comments
print report bad tab
9 comments total. Showing first comments.
0 reply
bloodyskull 31 Oct 10, 2007 08:50 AM

this is Dont dink and drance....its also wrong.

0 reply
KoRRuPT 10 Oct 10, 2007 05:42 PM

yeh...and I posted my tab it never came on!! "

And that I know it's 100% correct.

0 reply
critikay 31 Oct 10, 2007 05:56 PM

^thanx! :)

oops. the last part is actually played on the 5th, 4th ang 3rd string like this:
e|---------------------------------------------------------------------------|
B|---------------------------------------------------------------------------|
G|---------------------15-15--15-----15----14----15------16------------------|
D|-------------3--0----14-14--14-0---14-0--13-0--14--0---15------------------|
A|-------------3--0----13-13--13-0---13-0--12-0--13--0---14------------------|
D|5-00-4-0000--3--0--------------0------0-----0------0-----------------------|
.. ....

AND THE SONG IS ACTUALLY Dont drink and drance! my bad.

guest
You may want to rate the tab now too:
select rating
Wanna post a correction for this tab? Suggest correction