Oops, an error
Loading. Please wait.

Danger Wildman tab

version 3
version 3

Whole song

Interactive

9,687 views 3 this week
1 commentread comment
1 2 3 4 5
x 3
add to favorites
×
Save as Personal and add changes to this tab that will be seen only by you. Learn more ›
×
You can save this tab as Personal to edit and correct it or add notes. All changes will be seen only by you. Learn more »
launch autoscroll
font size
0
reset
how to read this tab
guitar tuner
edit
Autoscroll
slow
fast
+/-
esc
set tempo
stop
Really fun song
easy too
the other guys tab is good but theres a few mistakes : )
Give me good stars its the first tab ive ever done.

Tab By: Randy Tucker

Youtube:Randyplaysguitar

Tuning: Drop D
-
E-------------------------------------------------------------------|
B-------------------------------------------------------------------|
G-------------------------------------------------------------------|
D-0-----------------------------------------------------------------|
A-0-1/5-000-1/5-000-1/4-000-1/4-000-4/8-000-4/8-000-4/7-000-4/7-000-|
D-0-----000-----000-----000-----000-----000-----000-----000-----000-|
  .      ..      ..      ..      ..      ..      ..      ..      ..
(find rythm for PM part i dont feel like tabbing all of it)
(
E-------------------------------------------------|
B-------------------------------------------------|
G-------------------------------------------------|     All PM
D-------------------------------------------------|
A-00000--0-0-000000-000000000-00000000-0-0-0------|
D-00000--0-0-000000-000000000-00000000-0-0-0------|


Basically just repeat this not hard at all

E-------------------------------|
B-------------------------------|
G---------------10-10-10-10-12--|
D----------------x-x--x--x--x---|
A--5-4-8-7-5-4-8-8-8--8--8--10--|
D-------------------------------|
   ~ ~ ~ ~ ~ ~ ~
(trem pick all ~)


E-------------------------------------------------------------|
B-------------------------------------------------------------|
G-------------------------------------------------------------|
D-00000000-5555555555-8888888888-7777777777-0-----------------|====(pickslide)
A-00000000-5555555555-8888888888-7777777777-0-----------------|====(pickslide)
D-00000000-5555555555-8888888888-7777777777-0-----------------|====(pickslide)


E-------------------------------------------|
B-------------------------------------------|
G-------------------------------------------|
D-3-5-2-2-3-0-2-3-----3-5-2-2-3-0-2-3-------|  [2 Times]
A-----------------5-4-----------------5-4-5-|
D-------------------------------------------|

                                                                 [2nd times
E--------------------------------------------------------------|------------|
B--------------------------------------------------------------|------------|
G--------------------------------------------------------------|10-10-10-10-|
D-0-------------------------------0---------------444444-111111|x--x-x-x-x--|
A-0-0000000-8-7-5-4-00000-1-00000-0-0000000-8-7-5-444444-111111|8--8--8--8--|
D-0-0000000-8-7-5-4-00000-1-00000-0-0000000-8-7-5-444444-111111|------------|
    .......         .....   .....   .......

E----------------|
B----------------|
G-12-12-12-12-12-|
D-x--x--x--x--x--|
A-10-10-10-10-10-|
D----------------|

E----------------------------------------|
B----------------------------------------|
G----------------------------------------|
D-000000000-555555555-888888888-77777777-|
A-000000000-555555555-888888888-77777777-|
D-000000000-555555555-888888888-77777777-|

E-------------------------------------------|
B-------------------------------------------|
G-------------------------------------------|
D-3-5-2-2-3-0-2-3-----3-5-2-2-3-0-2-3-------|  | not sure if its right but |
A-----------------5-4-----------------5-4-5-|  |goes with synth so sound ok|
D-------------------------------------------|

E--------|
B--------|
G--------|
D-0=====-
A-0=====-
D-0=====-

E-------------------------------------------------|
B-------------------------------------------------|
G-------------------------------------------------|     All PM
D-------------------------------------------------|
A-00000--0-0-000000-000000000-00000000-0-0-0------|
D-00000--0-0-000000-000000000-00000000-0-0-0------|
(again find rythm)

e|-------------------|
B|-------------------|
G|-10-10-10-10-12-12-|
D|-x--x--x--x--x--x--|
A|-8--8--8--8-10-10--|
D|-------------------|

e|---------------------------------------------------------------|
B|---------------------------------------------------------------|
G|-10-----9------6-------14-------12------14-----15------18------|
D|-x-[x8]-x-[x8]-x-[x16]--x-[x12]--x-[x2]--x-[x2--x-[x8]--x-[x8]-|[repeat]
A|-8------7------4-------12-------10------12-----13------16------|[ Twice]
D|---------------------------------------------------------------|

E-------------------------------------------|
B-------------------------------------------|
G-------------------------------------------|
D-3-5-2-2-3-0-2-3-----3-5-2-2-3-0-2-3-------|
A-----------------5-4-----------------5-4-5-|
D-------------------------------------------|

            
            
Suggest correction
Creating personal tab
Creating personal tab
You can edit any tab online and save it as your Personal.

You can edit, replace or remove any tab part or add personal notes – all changes will be seen only by you.

Personal tabs can be accessed anytime from any device, even offline.
Learn more »
Give kudos to tab author, rate the tab!
1 2 3 4 5
comments
print report bad tab
1 comment total.
0 reply
Casper739 37 Jan 10, 2010 11:50 AM

nice
try this ;)

|---------------------------------------------------------|
|---------------------------------------------------------|
|-10-12-9--9-10--7-9-10-7-6---10-12-9--9-10-7-9-10--7-6-7-|
|-x--x--x--x-x---x-x-x--x-x---x--x--x--x-x--x-x-x---x-x-x-|
|-8--10-7--7-9---5-7-8--5-4---8--10-7--7-8--5-7-8---5-4-5-|
|---------------------------------------------------------|

and harmony

|-----------------------------------------------------------
|-----------------------------------------------------------
|-14-15-12--12-14--10-12-14--10-9--14-15-12--12-12--10-12-14
|-x--x--x---x--x---x--x--x---x--x--x--x--x---x--x---x--x--x-
|-12-13-10--10-12--8--10-12--8--7--12-13-10--10-14--8-10-12-
|-----------------------------------------------------------

--------|
--------|
-10-9-10|
-x--x-x-|
-8--7-8-|
--------|

guest
Wanna post a correction for this tab? Suggest correction