Oops, an error
Loading. Please wait.

Danger Wildman tab

version 5
version 5

Whole song

Interactive

12,945 views 3 this week
1 commentread comment
1 2 3 4 5
x 9
add to favorites
×
Save as Personal and add changes to this tab that will be seen only by you. Learn more ›
×
You can save this tab as Personal to edit and correct it or add notes. All changes will be seen only by you. Learn more »
launch autoscroll
font size
0
reset
how to read this tab
guitar tuner
edit
Autoscroll
slow
fast
+/-
esc
set tempo
stop
-------------------------------------------------------------------------------
                             Danger: Wildman - The Devil Wears Prada
-------------------------------------------------------------------------------
Tabbed by: Butch
Tuning:DADGBE

Intro: Guitars 1 & 2
|---------|
|---------|
|---------|
|-0-------|
|-0-------|
|-0-------|
  .

|----------------------------------|----------------------------------|
|----------------------------------|----------------------------------|
|----------------------------------|----------------------------------|
|----------------------------------|----------------------------------|
|-4/5-5----------------------------|-4/5-5----------------------------|
|-------000--00-00-00-00--0-000000-|-------000--00-00-00-00--0-000000-|
        ..   .  .  .  .     ......         ..   .  .  .  .     ......

|----------------------------------|----------------------------------|
|----------------------------------|----------------------------------|
|----------------------------------|----------------------------------|
|----------------------------------|----------------------------------|
|-3/4-4----------------------------|-3/4-4----------------------------|
|-------000--00-00-00-00--0-000000-|-------000--00-00-00-00--0-000000-|
        ..   .  .  .  .     ......         ..   .  .  .  .     ......

Guitar 1
|----------------------------------|----------------------------------|
|----------------------------------|----------------------------------|
|----------------------------------|----------------------------------|
|----------------------------------|----------------------------------|
|-7/8-8----------------------------|-7/8-8----------------------------|
|-------000--00-00-00-00--0-000000-|-------000--00-00-00-00--0-000000-|
|       ..   .  .  .  .     ......         ..   .  .  .  .     ......
|
|Guitar 2
|----------------------------------|----------------------------------|
|----------------------------------|----------------------------------|
|----------------------------------|----------------------------------|
|----------------------------------|----------------------------------|
|-4/5-5----------------------------|-4/5-5----------------------------|
|-------000--00-00-00-00--0-000000-|-------000--00-00-00-00--0-000000-|
        ..   .  .  .  .     ......         ..   .  .  .  .     ......

|----------------------------------|-----------------------------------|
|----------------------------------|-----------------------------------|
|----------------------------------|-----------------------------------|
|----------------------------------|---------------------------------0-|
|-6/7-7----------------------------|-6/7-7---------------------------0-|
|-------000--00-00-00-00--0-000000-|-------000--00-00-00-00--0-0000000-|
|       ..   .  .  .  .     ......         ..   .  .  .  .     .......
|
|----------------------------------|-----------------------------------|
|----------------------------------|-----------------------------------|
|----------------------------------|-----------------------------------|
|----------------------------------|---------------------------------0-|
|-3/4-4----------------------------|-3/4-4---------------------------0-|
|-------000--00-00-00-00--0-000000-|-------000--00-00-00-00--0-0000000-|
        ..   .  .  .  .     ......         ..   .  .  .  .     .......

"Do as you please..."
Both Guitars
|--------------------------------|--------------------------------|
|--------------------------------|--------------------------------|
|--------------------------------|--------------------------------|
|--------------------------------|--------------------------------|
|-000000--00-00-00000000--00--00-|-000000--00-00-00000000--00--00-|
|-000000--00-00-00000000--00--00-|-000000--00-00-00000000--00--00-|
  ......  .. .. ........  ..  ..   ......  .. .. ........  ..  ..

|--------------------------------|--------------------------------|
|--------------------------------|--------------------------------|
|--------------------------------|--------------------------------|
|--------------------------------|--------------------------------|
|-0-------00-00-00000000--00--00-|-000000--00-00-00000000--00--00-|
|-0-------00-00-00000000--00--00-|-000000--00-00-00000000--00--00-|
  .       .. .. ........  ..  ..   ......  .. .. ........  ..  ..

|----------------|
|----------------|
|----------------|
|----------------|
|-00--0000-0-000-|
|-00--0000-0-000-|
  ..  .... . ...

Tremolo Picking:
Guitar 1
|-----------------|-----------------|-----------------|-----------------|
|-----------------|-----------------|-----------------|-----------------|
|-----------------|-----------------|-----------------|-----------------|
|-----------------|-----------------|-----------------|-----------------|
|-8---------------|-7---------------|-12--------------|-10------13------|
|-----------------|-----------------|-----------------|-----------------|
|
|Guitar 2
|-----------------|-----------------|-----------------|-----------------|
|-----------------|-----------------|-----------------|-----------------|
|-----------------|-----------------|-----------------|-----------------|
|-----------------|-----------------|-----------------|-----------------|
|-5---------------|-4---------------|-8---------------|-7-------10------|
|-----------------|-----------------|-----------------|-----------------|


|-----------------|-----------------|-----------------|-------------------|
|-----------------|-----------------|-----------------|-------------------|
|-----------------|-----------------|-----------------|-7--7--7--9--9--9--|
|-----------------|-----------------|-----------------|-x--x--x--x--x--x--|
|-8---------------|-7---------------|-5---------------|-5--5--5--7--7--7--|
|-----------------|-----------------|-----------------|-------------------|
|
|-----------------|-----------------|-----------------|-------------------|
|-----------------|-----------------|-----------------|-------------------|
|-----------------|-----------------|-----------------|-10-10-10-12-12-12-|
|-----------------|-----------------|-----------------|-x--x--x--x--x--x--|
|-5---------------|-4---------------|-1---------------|-8--8--8--10-10-10-|
|-----------------|-----------------|-----------------|-------------------|

Chorus:
Guitar 1
|---------------------------------|---------------------------------|
|---------------------------------|---------------------------------|
|---------------------------------|---------------------------------|
|-0-0-0-0-0-0-0-0-0-0-0-0-0-0-0-0-|-5-5-5-5-5-5-5-5-5-5-5-5-5-5-5-5-|
|-0-0-0-0-0-0-0-0-0-0-0-0-0-0-0-0-|-5-5-5-5-5-5-5-5-5-5-5-5-5-5-5-5-|
|-0-0-0-0-0-0-0-0-0-0-0-0-0-0-0-0-|-5-5-5-5-5-5-5-5-5-5-5-5-5-5-5-5-|

|---------------------------------|---------------------------------|
|---------------------------------|---------------------------------|
|---------------------------------|---------------------------------|
|-8-8-8-8-8-8-8-8-8-8-8-8-8-8-8-8-|-7-7-7-7-7-7-7-7-7-7-7-7-7-7-7-7-|
|-8-8-8-8-8-8-8-8-8-8-8-8-8-8-8-8-|-7-7-7-7-7-7-7-7-7-7-7-7-7-7-7-7-|
|-8-8-8-8-8-8-8-8-8-8-8-8-8-8-8-8-|-7-7-7-7-7-7-7-7-7-7-7-7-7-7-7-7-|

Not sure what Guitar 2 does for the chorus. If anyone knows comment.

Guitar 1
|---------------------------------|
|---------------------------------|
|---------------------------------|
|-0---------------//////pick//////|
|-0---------------//////slide/////|
|-0---------------////////////////|
|
|Guitar 2
|---------------------------------|
|---------------------------------|
|---------------------------------|
|-0-----------------------//pick//|
|-0-----------------------//slide/|
|-0-----------------------////////|

"When worded correctly..."
Guitar 1
|---------------------------------|-----------------------------------|
|---------------------------------|-----------------------------------|
|---------------------------------|-----------------------------------|
|-3---5--2---2-3---0-2-3---12--11-|-3---5--2---2-3---0-2-3---12-11-12-|
|-3---5--2---2-3---0-2-3---12--11-|-3---5--2---2-3---0-2-3---12-11-12-|
|-3---5--2---2-3---0-2-3---12--11-|-3---5--2---2-3---0-2-3---12-11-12-|
|
|Guitar 2
|---------------------------------|-----------------------------------|
|---------------------------------|-----------------------------------|
|-10--12-9---9-10--7-9-10--7---6--|-10--12-9---9-10--7-9-10--7--6--7--|
|-x---x--x---x-x---x-x-x---x---x--|-x---x--x---x-x---x-x-x---x--x--x--|
|-8---10-7---7-8---5-7-8---5---4--|-8---10-7---7-8---5-7-8---5--4--5--|
|---------------------------------|-----------------------------------|

|-----------------------------------|-------------------------------------|
|-----------------------------------|-------------------------------------|
|-14--15-12--12-14--10-12-14--10--9-|-14--15-12--12-14--10-12-14--10-9-10-|
|-x---x--x---x--x---x--x--x---x---x-|-x---x--x---x--x---x--x--x---x--x-x--|
|-12--13-10--10-12--8--10-12--8---7-|-12--13-10--10-12--8--10-12--8--7-8--|
|-----------------------------------|-------------------------------------|
|
|-----------------------------------|-------------------------------------|
|-----------------------------------|-------------------------------------|
|-10--12-9---9--10--7--9--10--7---6-|-10--12-9---9--10--7--9--10--7--6--7-|
|-x---x--x---x--x---x--x--x---x---x-|-x---x--x---x--x---x--x--x---x--x--x-|
|-8---10-7---7--8---5--7--8---5---4-|-8---10-7---7--8---5--7--8---5--4--5-|
|-----------------------------------|-------------------------------------|

I spaced this part out to make it easier to get the timing.
|-----------------|-------------------|-----------------|-----------------|
|-----------------|-------------------|-----------------|-----------------|
|-----------------|-------------------|-----------------|-----------------|
|-----------------|-------------------|-----------------|-----------------|
|-----------------|-------------------|-----------------|-----------------|
|-0---0-0-0-0-0-0-|-0-0-11p0-10p0-8p0-|-7---0-0-0-0-0-0-|-4---0-0-0-0-0-0-|
|     . . . . . .   . .                     . . . . . .       . . . . . .
|
|-----------------|-------------------|-----------------|-----------------|
|-----------------|-------------------|-----------------|-----------------|
|-----------------|-------------------|-----------------|-----------------|
|-----------------|-------------------|-----------------|-----------------|
|-5---------------|-------------------|-----------------|-----------------|
|-----0-0-0-0-0-0-|-0-0-8p-0-7p-0-5p0-|-4---0-0-0-0-0-0-|-1---0-0-0-0-0-0-|
      . . . . . .   . .                     . . . . . .       . . . . . .
 
|-----------------|-------------------|-----------------|-----------------|
|-----------------|-------------------|-----------------|-----------------|
|-----------------|-------------------|-----------------|-----------------|
|-----------------|-------------------|-----------------|-----------------|
|-----------------|-------------------|-----------------|-----------------|
|-0---0-0-0-0-0-0-|-0-0-11p0-10p0-8p0-|-7-7-7-7-7-7-7-7-|-4-4-4-4---------|
|     . . . . . .   . .
|
|-----------------|-------------------|-----------------|-----------------|
|-----------------|-------------------|-----------------|-----------------|
|-----------------|-------------------|-----------------|-----------------|
|-----------------|-------------------|-----------------|-----------------|
|-----------------|-------------------|-----------------|-----------------|
|-0---0-0-0-0-0-0-|-0-0-8p-0-7p-0-5p0-|-4-4-4-4-4-4-4-4-|-1-1-1-1---------|
      . . . . . .   . .

|-----------------|-----------------|-----------------|-----------------|
|-----------------|-----------------|-----------------|-----------------|
|-----------------|-----------------|-----------------|-----------------|
|-----------------|-----------------|-----------------|-----------------|
|-----------------|-----------------|-----------------|-----------------|
|-0---0-0-0-0-0-0-|-0-0-11--10--8---|-7---0-0-0-0-0-0-|-4---0-0-0-0-0-0-|
|     . . . . . .   . .                   . . . . . .       . . . . . .
|
|-----------------|-----------------|-----------------|-----------------|
|-----------------|-----------------|-----------------|-----------------|
|-----------------|-----------------|-----------------|-----------------|
|-----------------|-----------------|-----------------|-----------------|
|-5---------------|-----------------|-----------------|-----------------|
|-----0-0-0-0-0-0-|-0-0-8---7---5---|-4---0-0-0-0-0-0-|-1---0-0-0-0-0-0-|
      . . . . . .   . .                   . . . . . .       . . . . . .

|-----------------|-----------------|-----------------|-----------------|
|-----------------|-----------------|-----------------|-----------------|
|-----------------|-----------------|-----------------|-----------------|
|-----------------|-----------------|-----------------|-----------------|
|-----------------|-----------------|-----------------|-----------------|
|-0---0-0-0-0-0-0-|-0-0-11--10--8---|-7-7-7-7-7-7-7-7-|-4-4-4-4-4-4-4-4-|
|     . . . . . .   . .
|
|-----------------|-----------------|-----------------|-----------------|
|-----------------|-----------------|-----------------|-----------------|
|-----------------|-----------------|-----------------|-----------------|
|-----------------|-----------------|-----------------|-----------------|
|-----------------|-----------------|-----------------|-----------------|
|-0---0-0-0-0-0-0-|-0-0-8---7---5---|-4-4-4-4-4-4-4-4-|-1-1-1-1-1-1-1-1-|
      . . . . . .   . .          
|-------------------------|-------------------------|
|-------------------------|-------------------------|
|-7--7--7--7--7--7--7--7--|-9--9--9--9--9--9--------|
|-x--x--x--x--x--x--x--x--|-x--x--x--x--x--x--------|
|-5--5--5--5--5--5--5--5--|-7--7--7--7--7--7--------|
|-------------------------|-------------------------|
|
|-------------------------|-------------------------|
|-------------------------|-------------------------|
|-10-10-10-10-10-10-10-10-|-12-12-12-12-12-12-------|
|-x--x--x--x--x--x--x--x--|-x--x--x--x--x--x--------|
|-8--8--8--8--8--8--8--8--|-10-10-10-10-10-10-------|
|-------------------------|-------------------------|

Chorus:
|---------------------------------|---------------------------------|
|---------------------------------|---------------------------------|
|---------------------------------|---------------------------------|
|-0-0-0-0-0-0-0-0-0-0-0-0-0-0-0-0-|-5-5-5-5-5-5-5-5-5-5-5-5-5-5-5-5-|
|-0-0-0-0-0-0-0-0-0-0-0-0-0-0-0-0-|-5-5-5-5-5-5-5-5-5-5-5-5-5-5-5-5-|
|-0-0-0-0-0-0-0-0-0-0-0-0-0-0-0-0-|-5-5-5-5-5-5-5-5-5-5-5-5-5-5-5-5-|

|---------------------------------|---------------------------------|
|---------------------------------|---------------------------------|
|---------------------------------|---------------------------------|
|-8-8-8-8-8-8-8-8-8-8-8-8-8-8-8-8-|-7-7-7-7-7-7-7-7-7-7-7-7-7-7-7-7-|
|-8-8-8-8-8-8-8-8-8-8-8-8-8-8-8-8-|-7-7-7-7-7-7-7-7-7-7-7-7-7-7-7-7-|
|-8-8-8-8-8-8-8-8-8-8-8-8-8-8-8-8-|-7-7-7-7-7-7-7-7-7-7-7-7-7-7-7-7-|

"When worded correctly..." slightly different this time:
Guitar 1
|----------------------------------|----------------------------------|
|----------------------------------|----------------------------------|
|----------------------------------|----------------------------------|
|-0-0-0--0-0-0-0-0-0-0-0-0-0-0-0-0-|-5-5-5--5-5-5-5-5-5-5-5-5-5-5-5-5-|
|-0-0-0--0-0-0-0-0-0-0-0-0-0-0-0-0-|-5-5-5--5-5-5-5-5-5-5-5-5-5-5-5-5-|
|-0-0-0--0-0-0-0-0-0-0-0-0-0-0-0-0-|-5-5-5--5-5-5-5-5-5-5-5-5-5-5-5-5-|
|
|Guitar 2
|----------------------------------|----------------------------------|
|----------------------------------|----------------------------------|
|-10--12-9---9-10--7-9-10--7---6---|-10--12-9---9-10--7-9-10--7-6-7---|
|-x---x--x---x-x---x-x-x---x---x---|-x---x--x---x-x---x-x-x---x-x-x---|
|-8---10-7---7-8---5-7-8---5---4---|-8---10-7---7-8---5-7-8---5-4-5---|
|----------------------------------|----------------------------------|

|----------------------------------|----------------------------------|
|----------------------------------|----------------------------------|
|----------------------------------|----------------------------------|
|-8-8-8--8-8-8-8-8-8-8-8-8-8-8-8-8-|-7-7-7--7-7-7-7-7-7-7-7-7-7-7-7-7-|
|-8-8-8--8-8-8-8-8-8-8-8-8-8-8-8-8-|-7-7-7--7-7-7-7-7-7-7-7-7-7-7-7-7-|
|-8-8-8--8-8-8-8-8-8-8-8-8-8-8-8-8-|-7-7-7--7-7-7-7-7-7-7-7-7-7-7-7-7-|
|
|----------------------------------|----------------------------------|
|----------------------------------|----------------------------------|
|-10--12-9---9-10--7-9-10--7---6---|-10--12-9---9-10--7-9-10--7-6-7---|
|-x---x--x---x-x---x-x-x---x---x---|-x---x--x---x-x---x-x-x---x-x-x---|
|-8---10-7---7-8---5-7-8---5---4---|-8---10-7---7-8---5-7-8---5-4-5---|
|----------------------------------|----------------------------------|

|---------|
|---------|
|---------|
|-0-------|
|-0-------|
|-0-------|

After the singing interlude with the sweet beats, back to "Do as you please..." 
This time it ends differently:
Both Guitars
|--------------------------------|--------------------------------|
|--------------------------------|--------------------------------|
|--------------------------------|--------------------------------|
|--------------------------------|--------------------------------|
|-000000--00-00-00000000--00--00-|-000000--00-00-00000000--00--00-|
|-000000--00-00-00000000--00--00-|-000000--00-00-00000000--00--00-|
  ......  .. .. ........  ..  ..   ......  .. .. ........  ..  ..

                                  Guitar 1
|--------------------------------|--------------------------------------|
|--------------------------------|--------------------------------------|
|--------------------------------|-----------------14-14-14-15-15-15----|
|--------------------------------|-----------------x--x--x--x--x--x-----|
|-0-------00-00-00000000--00--00-|-000000--00-00-0012-12-12-13-13-13----|
|-0-------00-00-00000000--00--00-|-000000--00-00-00---------------------|
  .       .. .. ........  ..  .. | ......  .. .. ..
                                 |Guitar 2
                                 |--------------------------------------|
                                 |--------------------------------------|
                                 |-----------------10-10-10-12-12-12----|
                                 |-----------------x--x--x--x--x--x-----|
                                 |-000000--00-00-008--8--8--10-10-10----|
                                 |-000000--00-00-00---------------------|
                                   ......  .. .. ..

Guitar 1
||-----------------------------------------------------------||
||-----------------------------------------------------------||
||-19-----------18------14-----------12----14----15----18----||
||-x--x16-------x--x16--x--x12-------x-x2--x-x2--x-x8--x--x8-||
||-17-----------16------12-----------10----12----13----16----||
||-----------------------------------------------------------||
||
||Guitar 2
||-----------------------------------------------------------||
||-----------------------------------------------------------||
||-10-----9-------------10-----9-----7-----9-----------------||
||-x--x8--x-x8--8--x16--x--x8--x-x4--x-x2--x-x2--8-x8--11-x8-||
||-8------7-----8-------8------7-----5-----7-----8-----11----||
||--------------8--------------------------------8-----11----||


"When worded correctly..."
Guitar 1
|----------------------------------|----------------------------------|
|----------------------------------|----------------------------------|
|----------------------------------|----------------------------------|
|-0-0-0--0-0-0-0-0-0-0-0-0-0-0-0-0-|-5-5-5--5-5-5-5-5-5-5-5-5-5-5-5-5-|
|-0-0-0--0-0-0-0-0-0-0-0-0-0-0-0-0-|-5-5-5--5-5-5-5-5-5-5-5-5-5-5-5-5-|
|-0-0-0--0-0-0-0-0-0-0-0-0-0-0-0-0-|-5-5-5--5-5-5-5-5-5-5-5-5-5-5-5-5-|
|
|Guitar 2
|----------------------------------|----------------------------------|
|----------------------------------|----------------------------------|
|-10--12-9---9-10--7-9-10--7---6---|-10--12-9---9-10--7-9-10--7-6-7---|
|-x---x--x---x-x---x-x-x---x---x---|-x---x--x---x-x---x-x-x---x-x-x---|
|-8---10-7---7-8---5-7-8---5---4---|-8---10-7---7-8---5-7-8---5-4-5---|
|----------------------------------|----------------------------------|

|----------------------------------|----------------------------------|
|----------------------------------|----------------------------------|
|----------------------------------|----------------------------------|
|-8-8-8--8-8-8-8-8-8-8-8-8-8-8-8-8-|-7-7-7--7-7-7-7-7-7-7-7-7-7-7-7-7-|
|-8-8-8--8-8-8-8-8-8-8-8-8-8-8-8-8-|-7-7-7--7-7-7-7-7-7-7-7-7-7-7-7-7-|
|-8-8-8--8-8-8-8-8-8-8-8-8-8-8-8-8-|-7-7-7--7-7-7-7-7-7-7-7-7-7-7-7-7-|
|
|----------------------------------|----------------------------------|
|----------------------------------|----------------------------------|
|-10--12-9---9-10--7-9-10--7---6---|-10--12-9---9-10--7-9-10--7-6-7---|
|-x---x--x---x-x---x-x-x---x---x---|-x---x--x---x-x---x-x-x---x-x-x---|
|-8---10-7---7-8---5-7-8---5---4---|-8---10-7---7-8---5-7-8---5-4-5---|
|----------------------------------|----------------------------------|

End on:
|---------|
|---------|
|---------|
|-0-------|
|-0-------|
|-0-------|

            
            
Suggest correction
Creating personal tab
Creating personal tab
You can edit any tab online and save it as your Personal.

You can edit, replace or remove any tab part or add personal notes – all changes will be seen only by you.

Personal tabs can be accessed anytime from any device, even offline.
Learn more »
comments
print report bad tab
1 comment total.
+1 reply
14omnipotent 66 Oct 23, 2015 04:17 PM

The lead guitar plays octaves in the chorus:

|------------|
|------------|
|--10--------|
|--x---[x16]-|
|--8---------|
|------------|

|------------|
|------------|
|--14--------|
|--x---[x4]--|
|--12--------|
|------------|

|------------|
|------------|
|--12--------|
|--x---[x16]-|
|--10--------|
|------------|

|------------|
|------------|
|--14--------|
|--x---[x4]--|
|--12--------|
|------------|

|------------|
|------------|
|--15--------|
|--x---[x16]-|
|--13--------|
|------------|

|------------|
|------------|
|--14--------|
|--x---[x16]-|
|--12--------|
|------------|

guest
You may want to rate the tab now too:
select rating
Wanna post a correction for this tab? Suggest correction