Oops, an error
Loading. Please wait.

Detriot Tapes Tab

version 1
version 1

Whole song

Interactive

31 views 1 this week
no commentswrite comment
1 2 3 4 5
2 more votes to show rating
add to favorites
launch autoscroll
font size
0
reset
how to read this tab
guitar tuner
Autoscroll
slow
fast
+/-
esc
set tempo
stop
Help us to improve Ultimate-Guitar.com Take our survey!
×
Author
Difficulty
Tuning
intermediate
A E A D F# B
[Detriot Tapes]
[Transit Blues]
[The Devil Wears Prada]

Tuning: A E A D Gb B
Playthrough: https://www.youtube.com/watch?v=9ln605EDNFQ

[Riff 1] - [00:00] - [00:23] - [x2]
- -----------------------------------------------------------------
- -----------------------------------------------------------------
- -----------------------------------------------------------------
- -2-2-2-2-2-2-2-2-2-2-2-2-2-2-2-2-3-3-3-3-3-3-3-3-3-3-3-3-3-3-3-3-
- -0-0-0-0-0-0-0-0-0-0-0-0-0-0-0-0-1-1-1-1-1-1-1-1-1-1-1-1-1-1-1-1-
- -----------------------------------------------------------------

- -----------------------------------------------------------------
- -----------------------------------------------------------------
- -------------------------------------------------3-3-3-3-3-3-3-3-
- -2-2-2-2-2-2-2-2-2-2-2-2-2-2-2-2-3-3-3-3-3-3-3-3-x-x-x-x-x-x-x-x-
- -0-0-0-0-0-0-0-0-0-0-0-0-0-0-0-0-1-1-1-1-1-1-1-1-1-1-1-1-1-1-1-1-
- -----------------------------------------------------------------

[Riff 2] - [00:23] - [00:34]
- -----------------------------------------------------------------
- -----------------------------------------------------------------
- -----------------------------------------------------------------
- ---------8p7-------------8p7-------------8p7---------------------
- -000-0-0-----6-----0-0-0-----6p5-000-0-0-----0-------------------
- -000-0-0-------0---0-0-0---------000-0-0-----0-5---5-5-0-1-1-1-0-
PM .......           .....         .......     .

- -----------------------------------------------------------------
- -----------------------------------------------------------------
- -----------------------------------------------------------------
- ---------8p7-------------8p7-------------8p7---------------------
- -000-0-0-----6-----0-0-0-----6p5-000-0-0-----0-------------------
- -000-0-0-------0---0-0-0---------000-0-0-----0-5---5-5-0-1-1-1-1-
PM .......           .....         .......     .

[Riff 3] - [00:34] - [00:45]
- -----------------------------------------------------------------
- -----------------------------------------------------------------
- -----------------------------------------------------------------
- ---------------------------------1~--------------0~--------------
- ---------------------------------1~--------------0~--------------
- -1~--------------0~------5---\---1~--------------0~--------------

- -----------------------------------------------------------------
- -----------------------------------------------------------------
- -----------------------------------------------------------------
- ---------------------------------1~--------------0---------------
- ---------------------------------1~--------------0-0-0-0-0-0-0-0-
- -1~--------------0~------5---\---1~--------------0-0-0-0-0-0-0-0-
PM                                                   .............

[Riff 4] - [00:45] - [00:50]
- -----------------------------------------------------------------
- ---------13h15v--------------\-----------------------------------
- -----------------------------------------------------------------
- -0~--------------------------------------------------------------
- -0~------------------------------6-6-6-6-6-6-6-6-6-6-6-6-1-1-1-1-
- -0~--------------------------------------------------------------

[Riff 5] - [00:50] - [01:00]
- -----------------------------------------------------------------
- -----------------------------------------------------------------
- -----------------------------------------------------------------
- -2-2-2-2-2-2-2-2-2-2-2-2-2-2-2-2-3-3-3-3-3-3-3-3-3-3-3-3-3-3-3-3-
- -0-0-0-0-0-0-0-0-0-0-0-0-0-0-0-0-1-1-1-1-1-1-1-1-1-1-1-1-1-1-1-1-
- -----------------------------------------------------------------

- -----------------------------------------------------------------
- -----------------------------------------------------------------
- -----------------------------------------------------------------
- -2-2-2-2-2-2-2-2-2-2-2-2-2-2-2-2-3-3-3-3-3-3-3-3-----------------
- -0-0-0-0-0-0-0-0-0-0-0-0-0-0-0-0-1-1-1-1-1-1-1-1-----------------
- -------------------------------------------------5-5-5-0-1-1-1-1-


[Riff 6, Guitar 1 & 2] - [01:00] - [01:06]
- -----------------------------------------------------------------
- -----------------------------------------------------------------
- -----------------------------------------------------------------
- ---------------------------------------------5-------------------
- -000---0-----------000-0-111-111-000---0-------6---000-0-111-111-
- -000---0-----------000-0-111-111-000---0---0-----0-000-0-111-111-
PM ...........................................     ...............
- -----------------------------------------------------------------
- -----------------------------------------------------------------
- -----------------------------------------------------------------
- -------------5---------------------------------------------------
- -000---0-------6---000-0-111-111-000---0-----------000-0-111-111-
- -000---0---0-----0-000-0-111-111-000---0-----------000-0-111-111-
PM ...........     ...............................................


[Riff 7] - [01:06] - [01:11]
- -----------------------------------------------------------------
- -----------------------------------------------------------------
- -----------------------------------------------------------------
- -----------------------------------------------------------------
- -0-0-0-0-0-0-0-0-0-0-0-0-0-------0-0-0-0-0-0-0-0-0-0-0-0-0-------
- -0-0-0-0-0-0-0-0-0-0-0-0-0-1-1-1-0-0-0-0-0-0-0-0-0-0-0-0-0-1-1-1-
PM .........................       .........................

[Riff 8] - [01:11] - [01:21]
- -----------------------------------------------------------------
- -----------------------------------------------------------------
- ---------5---------------5---------------5-----------------------
- -----------------------------------------------------------------
- -000-0-0---6-0-5\--000-0---6-5-0-000-0-0---6-0-------------------
- -000-0-0-----0-----000-0---------000-0-0-----0-5---5-5-0-1-1-1-0-
PM .......     .     .....         .......     .

- -----------------------------------------------------------------
- -----------------------------------------------------------------
- ---------5---------------5---------------5-----------------------
- -----------------------------------------------------------------
- -000-0-0---6-0-5\--000-0---6-5-0-000-0-0---6-0-------------------
- -000-0-0-----0-----000-0---------000-0-0-----0-5---5-5-0-1-1-1-1-
PM .......     .     .....         .......     .

[Riff 9] - [01:21] - [01:27]
- -----------------------------------------------------------------
- -----------------------------------------------------------------
- -----------------------------------------------------------------
- ---------------------------------1~--------------0---------------
- ---------------------------------1~--------------0-0-0-0-0-0-0-0-
- -1~--------------0~------5---\---1~--------------0-0-0-0-0-0-0-0-
PM                                                   .............

[Riff 10] - [01:27] - [01:48] - [x4]
- -------------------------------------------------------------------------
- ---------13h15v---------13h15\-------------------------------------------
- -------------------------------------------------------------------------
- -0~------------------------------1~--------------------------------------
- -0~------------------------------1~--------------------------------------
- -0~------------------------------1~-------------/10-13-13-13-13-10-10-10-

[Riff 11] - [01:48] - [01:58] - [x2]
- -------------------------------------------------------------------------
- -------------------------------------------------------------------------
- -------------------------------------------------------------------------
- -0~------------------------------1~--------------------------------------
- -0~------------------------------1~--------------------------------------
- -0~------------------------------1~-------------/10-13-13-13-13-10-10-10-

Symbols]

PM... Palm Mute notes with (...) under them
AP... Alternate Pick notes with (...) under them
h     Hammer On
p     Pull Off
[ ]   Harmonic
/     Slide Up
\     Slide Down
x     Dead Note
b     Bend
p     Pre-Bend
r     Release Bend
(x )  Play Notes x amount of times
~     Let Ring
/ 3 \ Notes are triplets (3 notes in the space of two)
w\    Whammy Bar Down
w/    Whammy Bar Up
T     Right Hand Tap

:)
Suggest correction
Give kudos to tab author, rate the tab!
1 2 3 4 5
comments
print report bad tab
guest
You may want to rate the tab now too:
select rating
Wanna post a correction for this tab? Suggest correction