Oops, an error
Loading. Please wait.

Dogs Can Grow Beards All Over bass

version 1
version 1
9,825 views 1 this week
4 commentsread comments
1 2 3 4 5
x 3
add to favorites
×
Save as Personal and add changes to this tab that will be seen only by you. Learn more ›
×
You can save this tab as Personal to edit and correct it or add notes. All changes will be seen only by you. Learn more »
launch autoscroll
font size
0
reset
guitar tuner
backing track
0:00
0:00
edit
Autoscroll
slow
fast
+/-
esc
set tempo
stop
Dogs Can Grow Beards All Over~ 
The Devil Wears Prada
From: Dear Love, A Beautiful Discord
Tuning: DROP D

This is my first tab, I'm sure I didn't get everything, but it seems pretty close to me. 

INTRO 0:05
G|----------|
D|----------|	
A|----------|
D|----5~-0~-|

WELCOME TO THE WAR...
G|--------------|
D|--------------|
A|--------------|
|\\8~-7~-5~-0~-|x3       Only play the slide the first time.


CHAINSAW BRUTALITY...
G|----------------------------------|
D|----------------------------------|
A|----------------------------------|        Guitar plays it once first, bass
D|--0-1-2-0-3-2-0-3^-0-1-2-0-3-0----|x4      comes in at 0:37

but on the second time, play this ending:
G|--------------------------------------|
D|--------------------------------------|
A|--------------------------------------|
D|--0-1-2-0-3-2-0-3^-0-1-2-0-333-000----|
                                                                                                            
FILL:
G|--------------------------|
D|--------------------------|
A|--------------------------|
D|--4-4-4-3-3-3-2-2-2-1-1-1-|

KING 0F THE DIAM0ND...
G|----------------------------------|
D|----------------------------------|
A|------4-4-3-3-------------3-3-2-2-|    Its possible this part is entirely 
D|--0-0---------4-4-3-3-2-2---------|x2  wrong, but this is what I heard.

LAWLESSNESS…
G|----------------------|
D|----------------------|
A|----------------------|
D|--00-02211--00-02211--|x2

WE’RE TOO STRONG TO COMPROMISE
G|-----------------------------------------|
D|-----------------------------------------|
A|-----------------------------------------|
D|--0-0-0-0-0-0-0-0----6-5--3-2--6-5--3-2--|x4

G|---------------------------------|
D|---------------------------------|
A|-------------------------3^---5--|
D|-6-5--3-2--6-5--3-2----0---0-----|x4

DEAR LORD…     Play this part twice before the slide, and twice after.
G|---------------------------------------|
D|---------------------------------------| PART A
A|---------------------------------------|
D|--0-0-3-0-5-0-3-0--0-0-0-0-0-0-0-0-0-0-|

G|------------------------------------|
D|------------------------------------| PART B
A|---------------------------------3^-|
D|--0-0-3-0-5-0-6-5--0-0-0-0-0-0-0----| 

G|--------|
D|--------| PART C
A|--------|
D|-12\\---|

So its like, ABAB C ABAB

Then hold an open D
G|------|
D|------|
A|------|
D|--0~--|

HE WEARS A SLICK JACKET & GOLD WATCH.
G|---------------------------------------------| alright, so the "breakdown 
D|---------------------------------------------| riff is just a bunch of open 
A|---------------------------------------------|D's. the timing is impossible 
D|--88888888-1010101010101010---Breakdown Riff-| to write, but its painfully 
HER DISHONESTY HAS SCARRED HANDS.               obvious. listen to the song.
G|---------------------------------------------|
D|---------------------------------------------|
A|---------------------------------------------|
D|--88888888-1010101010101010---Breakdown Riff-|
HE WEARS A SLICK JACKET.
G|---------------------------------------------| 
D|---------------------------------------------| 
A|---------------------------------------------|  
D|--88888888-1010101010101010---Breakdown Riff-|

Play the breakdown riff again.
Pause for the bell.
Riff again
Pause for synth
Riff again
Then slide:
G|--------|
D|--------|
A|--------|
D|-1/18\\-|
Another breakdown riff.
Synth pause

OUTRO:
G|----------|
D|----------|
A|----------|
D|--0-0-0-0-|x4

End On D.

            
            
Suggest correction
Creating personal tab
Creating personal tab
You can edit any tab online and save it as your Personal.

You can edit, replace or remove any tab part or add personal notes – all changes will be seen only by you.

Personal tabs can be accessed anytime from any device, even offline.
Learn more »
Give kudos to tab author, rate the tab!
1 2 3 4 5
comments
print report bad tab
4 comments total. Showing first comments.
0 reply
bassbizzle 71 Jun 10, 2007 10:11 AM

OUTRO:
G|----------|
D|----------|
A|----------|
D|--0-0-0-0-|x4

should be

OUTRO:
G|----------|
D|----------|
A|-5-5-5-5--|
D|----------|x4

then slide to open A

0 reply
Fender700 73 Nov 14, 2007 01:52 PM

very closee

0 reply
Lucas69camaro 10 Feb 08, 2008 11:17 AM

Hint...the so called "breakdown riff" is 10 quick beats, then two more beats almost immediatly after.
G|---------------|
D|---------------|
A|---------------|
D|-0000000000-00-| = "Breakdown riff"

But then again, the timing IS painfully obvious...

guest
You may want to rate the tab now too:
select rating
Wanna post a correction for this tab? Suggest correction