Oops, an error
Loading. Please wait.

Dogs Can Grow Beards All Over intro tab

version 1
version 1

Intro

Whole song

24,156 views 1 this week
1 commentread comment
1 2 3 4 5
2 more votes to show rating
add to favorites
×
Save as Personal and add changes to this tab that will be seen only by you. Learn more ›
×
You can save this tab as Personal to edit and correct it or add notes. All changes will be seen only by you. Learn more »
launch autoscroll
font size
0
reset
how to read this tab
guitar tuner
backing track
0:00
0:00
edit
Autoscroll
slow
fast
+/-
esc
set tempo
stop
This song is fun but so far ive only got the beginning

Tuning - Drop D


Beginning (0:00-0:32)
E|------------------------------------------------------|
B|------------------------------------------------------|
G|------------------------------------------------------|
D|------------------------------------------------------|
A|--00-7h10-7h10-7h10-7h10-7h10-00-5h8-5h8-5h8-5h8-5h8--|
D|--00-----0----0----0----0-----00----0---0---0---0-----|
    ..     .    .    .    .     ..    .   .   .   .

Continued..
E|----------------------------------------------------|
B|----------------------------------------------------|
G|----------------------------------------------------|
D|-------------------------------------87-------------|x4
A|--00-4h7-4h7-4h7-4h7-4h7-00--5h8-5h8---85875h8------|
D|--00----0---0---0---0----00-----0-------------------|


Yah, its pretty simple but if you have any questions you can message me at myspace.com
www.myspace.com/codsterrrrr <---- thats my link
PEACE.

            
            
Suggest correction
Creating personal tab
Creating personal tab
You can edit any tab online and save it as your Personal.

You can edit, replace or remove any tab part or add personal notes – all changes will be seen only by you.

Personal tabs can be accessed anytime from any device, even offline.
Learn more »
Give kudos to tab author, rate the tab!
1 2 3 4 5
comments
print report bad tab
1 comment total.
0 reply
jo3myster 247 May 29, 2007 12:15 PM

Hey ur tab is good but i think it goes

|-----------|-------------------|
|-----------|-------------------|
|-----------|-------------------|
|-----------|-------------------|
|-00-7h10p0-|-00-5h8p0----------|
|-00--------|-00----------------|

guest
You may want to rate the tab now too:
select rating
Wanna post a correction for this tab? Suggest correction