Oops, an error
Loading. Please wait.

Dogs Can Grow Beards All Over tab

version 1
version 1

Whole song

50,369 views 9 this week
8 commentsread comments
1 2 3 4 5
x 9
add to favorites
×
Save as Personal and add changes to this tab that will be seen only by you. Learn more ›
×
You can save this tab as Personal to edit and correct it or add notes. All changes will be seen only by you. Learn more »
launch autoscroll
font size
0
reset
how to read this tab
guitar tuner
backing track
0:00
0:00
edit
Autoscroll
slow
fast
+/-
esc
set tempo
stop
This is The song that everyone has been wanting me to put up, and i just firgured this 
like 2 weeks ago, i have just been to lazy to put it up, and acually some one by the name 
Tyler? Wanted him and his band to cover this song so, here you go bro

Tunning - Drop D


Beginning (0:00-0:33)
E|------------------------------------------------------|
B|------------------------------------------------------|
G|------------------------------------------------------|
D|------------------------------------------------------|
A|--00-7h10-7h10-7h10-7h10-7h10-00-5h8-5h8-5h8-5h8-5h8--|
D|--00-----0----0----0----0-----00----0---0---0---0-----|
    ..     .    .    .    .     ..    .   .   .   .

Continued..
E|----------------------------------------------------|
B|----------------------------------------------------|
G|----------------------------------------------------|
D|-------------------------------------87-------------|x4
A|--00-4h7-4h7-4h7-4h7-4h7-00--5h8-5h8---85875h8------|
D|--00----0---0---0---0----00-----0-------------------|


(0:34-0:51)
E|---------------------------------------|
B|---------------------------------------|
G|---------------------------------------|
D|-0-1-2-0-3-0-00----0-1-2-0-4-3-0-------|x2
A|-0-1-2-0-3-0-00----0-1-2-0-4-3-0-3*----|
D|-0-1-2-0-3-0-00-3*-0-1-2-0-4-3-0-------|

Then Right After
E|---------------------------------------|
B|---------------------------------------|
G|---------------------------------------|
D|-0-1-2-0-3-0-00----0-1-2-0-444-333-----|
A|-0-1-2-0-3-0-00----0-1-2-0-444-333-----|
D|-0-1-2-0-3-0-00-3*-0-1-2-0-444-333-----|

On the Last One Do this
E|---------------------------------------------|
B|---------------------------------------------|
G|---------------------------------------------|
D|-0-1-2-0-3-0-00----0-1-2-0-444-333-222-111---|
A|-0-1-2-0-3-0-00----0-1-2-0-444-333-222-111---|
D|-0-1-2-0-3-0-00-3*-0-1-2-0-444-333-222-111---|

Then Some weird shit.. (0:52-0:59)
E|----------------------------|
B|----------------------------|
G|----------------------------|
D|----------------------------|x4
A|---4h03h0---------3h02h0----|
D|--0------4h03h03h0----------|

(1:00-1:06)
This Time you kinda mute the D string..
E|---------------------|
B|---------------------|
G|---------------------|
D|---------------------|x4
A|----4-3-----3-2------|
D|---0----430----------|

Pause.. (1:07-1:09)
E|----------------|
B|----------------|
G|----77777777----|
D|----66666666----|x1
A|----55555555----|
D|----------------|

(1:10-1:24)
E|-------------------------------------------|
B|-------------------------------------------|
G|-----------------------------77777777------|
D|-----------------------------66666666------|x3
A|-----------------------------55555555------|
D|--6h05h03h02h06h05h03h02h0-----------------|


(1:24-1:39)
E|-------------------------------------------|
B|-------------------------------------------|
G|-------------------------------------------|
D|-------------------------------------------|x4
A|---------------------------0-3~-0-5~-------|
D|--6h05h03h02h06h05h03h02h0-0----0----------|

(1:40-2:13)
E|----------------------------------------------------------|
B|----------------------------------------------------------|
G|----------------------------------------------------------|
D|--0-0-3-0-5-0--30--0000000000-0-0-3-0-5-0-65--0000000-----|x4
A|--0-0-3-0-5-0--30--0000000000-0-0-3-0-5-0-65--0000000-3*--|
D|--0-0-3-0-5-0--30--0000000000-0-0-3-0-5-0-65--0000000-----|

Gnarly Ass Chorus (2:14-2:47)
E|-----------------------------------------------------|
B|-----------------------------------------------------|
G|-----------------------------------------------------|
D|--8888888888888888101010101010101010101010101010-----|
A|--8888888888888888101010101010101010101010101010-----|
D|--8888888888888888101010101010101010101010101010-----|

Then..
E|-------------------------------------------|
B|-------------------------------------------|
G|-------101010---------10101010121212-------|
D|---000-x-x-x--000000--x-x-x-x-x-x-x--------|
A|---000-8-8-8--000000--8-8-8-8-101010-------|
D|---000--------000000-----------------------|

E|-------------------------------------------|
B|-------------------------------------------|
G|-------101010---------10101010999----------|
D|---000-x-x-x--000000--x-x-x-x-xxx----------|
A|---000-8-8-8--000000--8-8-8-8-777----------|
D|---000--------000000-----------------------|


E|-----------------------------------------------------|
B|-----------------------------------------------------|
G|-----------------------------------------------------|
D|--8888888888888888101010101010101010101010101010-----|
A|--8888888888888888101010101010101010101010101010-----|
D|--8888888888888888101010101010101010101010101010-----|

E|-----------------------------------------------------------------------|
B|-----------------------------------------------------------------------|
G|----------------------------101010---------------------------121212----|
D|---00000000-0-000-000000-0--x-x-x---00000000-0-000-000000-0--x-x-x-----|
A|---00000000-0-000-000000-0--8-8-8---00000000-0-000-000000-0--101010----|
D|---00000000-0-000-000000-0----------00000000-0-000-000000-0------------|

E|--------------------------------------|
B|--------------------------------------|
G|--------------------------------------|
D|--8888888888888888777777777777777-----|
A|--8888888888888888777777777777777-----|
D|--8888888888888888777777777777777-----|

(2:48-3:00)
E|-------------------------------------------------------------|
B|-------------------------------------------------------------|
G|-------------------------------------------------------------|
D|---00000000-0-000-000000-0-00--00000000-0-000-000000-0-00----|x2
A|---00000000-0-000-000000-0-00--00000000-0-000-000000-0-00----|
D|---00000000-0-000-000000-0-00--00000000-0-000-000000-0-00----|

(3:01-3:13)
E|---------------------|
B|---------------------|
G|---------------------|
D|---00000000-0-000----|x4
A|---00000000-0-000----|
D|---00000000-0-000----|

Last Part Till The End (3:14-3:31)
E|----------|
B|----------|
G|----7777--|
D|----6666--|x5
A|----5555--|
D|----------|


Yup, thats it...if you have any quetions message me on myspace
myspace.com/codsterrrrr <----- thats my link.
PEACE
..and YOUR WELCOME :)

            
            
Suggest correction
Creating personal tab
Creating personal tab
You can edit any tab online and save it as your Personal.

You can edit, replace or remove any tab part or add personal notes – all changes will be seen only by you.

Personal tabs can be accessed anytime from any device, even offline.
Learn more »
comments
print report bad tab
8 comments total. Showing first comments.
0 reply
Aus-10 40 Dec 02, 2006 08:35 PM

Love it

0 reply
ddgrulesalways 10 Dec 25, 2006 09:45 PM

nice.

tdwp owns.

0 reply
NirvanaFan101 31 Dec 31, 2006 10:09 AM

great tab! nice

guest
You may want to rate the tab now too:
select rating
Wanna post a correction for this tab? Suggest correction