Oops, an error
Loading. Please wait.

Dogs Can Grow Beards All Over bass

version 3
version 3
16,618 views 1 this week
5 commentsread comments
1 2 3 4 5
x 9
add to favorites
×
Save as Personal and add changes to this tab that will be seen only by you. Learn more ›
×
You can save this tab as Personal to edit and correct it or add notes. All changes will be seen only by you. Learn more »
launch autoscroll
font size
0
reset
guitar tuner
backing track
0:00
0:00
edit
Autoscroll
slow
fast
+/-
esc
set tempo
stop
G|----------|
D|----------|
A|----------|
D|--5~--3/1-|

G|-------------------------------------|
D|-------------------------------------|
A|-------------------------------------|x3
D|-88888888-77777777-55555555-00000000-|

G|----------------|
D|----------------|
A|----------------|x3
D|--0-2-3-0-3-2-5-|

G|----------------|
D|----------------|
A|----------------|
D|--0-2-3-2h3-2h3-|

G|----------------|
D|----------------|
A|----------------|x3
D|--0-2-3-0-3-2-5-|

G|------------------|
D|------------------|
A|------------------|
D|--666-555-444-333-|

G|---------------------|
D|---------------------|
A|----9-8-7--5h6--9-8--|x8
D|--0------------------|

G|-------------------|
D|-------------------|
A|-------------------|x3
D|--6-5-4-3--6-5-4-3-|

G|---------------------------------------------|
D|-------------------------------------3^---5^-|
A|---------------------------------------------|
D|--6-5-4-3--6-5-4-3--6-5-4-3--6-5-4-3---------|

G|---------------------------|
D|-------------------3^---5^-|
A|---------------------------|x
D|--6-5-4-3--6-5-4-3---------|

G|-------------------------|
D|-------------------------|
A|-------------------------|
D|--0-03-05-03-0-000000000-|

G|-------------------------|
D|-------------------------|
A|-------------------------|
D|--0-03-05-06-0-000000000-|

G|-------------------------|
D|-------------------------|
A|-------------------------|
D|--0-03-05-03-0-000000000-|

G|----------------|
D|----------------|
A|----------------|
D|--0-03-05-06-0~-|

G|-------------------------|
D|-------------------------|
A|-------------------------|
D|--0-03-05-03-0-000000000-|

G|-------------------------|
D|-------------------------|
A|-------------------------|
D|--0-03-05-06-0-000000000-|

G|-------------------------|
D|-------------------------|
A|-------------------------|
D|--0-03-05-03-0-000000000-|

G|----------------------------|
D|----------------------------|
A|----------------------------|
D|--0-03-05-06-0-000000000-0~-|

G|------------------------------------------|
D|------------------------------------------|
A|---------------111111111111-333333333333--|
D|--000000000000----------------------------|

G|-----------------------------|
D|-----------------------------|
A|-----------11111111-33333333-|x2
D|--00000000-------------------|

G|---------------------------------|
D|---------------------------------|
A|---------------------------------|
D|--000000-000000-000000-000000-0~-|

G|--------------|
D|--------------|
A|--------------|
D|--00000000-00-|

G|------------------------------|
D|------------------------------|
A|------------------------------|
D|--00000000-00000000-1/10-12\0-|

G|--------------------|
D|--------------------|
A|--------------------|
D|--00000000-00000000-|

G|-------|
D|-------|
A|-------|x4
D|--0000-|

G|----------|
D|----------|
A|----------|
D|--0-0-0-0-|


Well thats it. thats the way i learned to play this song aint it sounds almost a 100% 
but thats just how it sounds to me so rate it or comment it if you think there is a problem.

            
            
Suggest correction
Creating personal tab
Creating personal tab
You can edit any tab online and save it as your Personal.

You can edit, replace or remove any tab part or add personal notes – all changes will be seen only by you.

Personal tabs can be accessed anytime from any device, even offline.
Learn more »
comments
print report bad tab
5 comments total. Showing first comments.
+1 reply
Sak 10 Jul 31, 2007 11:09 AM

G|---------------------------|
D|-------------------3^---5^-|
A|---------------------------|x
D|--6-5-4-3--6-5-4-3---------|


they play this part 3 times

0 reply
mattb91 26 Sep 30, 2007 03:52 AM

wait where's the sweet bass slide towards the end?

0 reply
Lucas69camaro 10 Feb 08, 2008 11:10 AM

Mattb91: What do you think this is?
G|------------------------------|
D|------------------------------|
A|------------------------------|
D|--00000000-00000000-1/10-12\0-|
^^^^^^^^^

guest
Wanna post a correction for this tab? Suggest correction