Oops, an error
Loading. Please wait.

Dogs Can Grow Beards All Over bass

version 4
version 4
1,254 views 1 this week
no commentswrite comment
1 2 3 4 5
2 more votes to show rating
add to favorites
×
Save as Personal and add changes to this tab that will be seen only by you. Learn more ›
×
You can save this tab as Personal to edit and correct it or add notes. All changes will be seen only by you. Learn more »
launch autoscroll
font size
0
reset
guitar tuner
backing track
0:00
0:00
edit
Autoscroll
slow
fast
+/-
esc
set tempo
stop
----------------------------------------------------------------------------
			     SONG NAME - Band Name
----------------------------------------------------------------------------

Tabbed By : Francis
e-mail: gudisnypr@yahoo.com

Tuning: Drop D (DADG)
Note: Derived off the guitar tab from TDWP's blog and how I play it.
E-mail for questions and corrections.
Many patterns aren't tabbed out here, so figure it out.

G|----|------------------------------------------------------------------|
D|----|------------------------------------------------------------------|
A|----|------------------------------------------------------------------|
D|--5~|--8~-7~-5~-0~(play these notes repetitively during double pedals)-|

G|------------------------------------------------------------------------|
D|------------------------------------------------------------------------|
A|----------------------------------3-------------------------------------|
D|---0-1-2-0-3-2-0-3--0-1-2-0-3-2-0---------------------------------------|

G|------------------------------------------------------------------------|
D|------------------------------------------------------------------------|
A|------------------------------------------------------------------------|
D|---0-1-2-0-3-2-0-3--0-1-2-0-333-222-(111-000)---------------------------|

G|------------------------------------------------------------------------|
D|------------------------------------------------------------------------|
A|-------4-4-3-3-------------3-3-2-2--------------------------------------|
D|---0-0---------4-4-3-3-2-2----------------------------------------------|

G|------------------------------------------------------------------------|
D|------------------------------------------------------------------------|
A|------------------------------------------------------------------------|
D|---0-(0)---0-000-000--(or)--0-(0)---0-333-222---------------------------|

G|------------------------------------------------------------------------|
D|------------------------------------------------------------------------|
A|---5x-5x-5x-5x-5x-5x-5x-------------------------------------------------|
D|-------------------------6p0-5p0-3p0-2p0--6p0-5p0-3p0-2p0---------------|

G|------------------------------------------------------------------------|
D|------------------------------------------------------------------------|
A|---------------------------------------3-----5--------------------------|
D|---6p0-5p0-3p0-2p0--6p0-5p0-3p0-2p0--0-----0----------------------------|

G|------------------------------------------------------------------------|
D|------------------------------------------------------------------------|
A|------------------------------------------------------------------------|
D|---0-0-3-0-5-0-3-0---0-0-0-0-0-0-0-0-0-0--------------------------------|

G|------------------------------------------|-------|----------|
D|------------------------------------------|---(1)-|----(2)---|
A|------------------------------------------|-------|---3------|
D|---0-0-3-0-5-0-6-5---0-0-0-0-0-0-0-0-0-0--|--12\--|--------0~|
(1): after first time
(2): after second time

G|------------------------------------------|
D|------------------------------------------|
A|------------------------------------------|
D|----8(x16)-10(x16)-0-(breakdown pattern)--|
*repeat throughout breakdown

Breakdown
Open D

Slide
G|---------------------------|
D|---------------------------|
A|---------------------------|
D|---1\12/1------------------|

Breakdown
Open D

Ending Breakdown
G|----------|-----------|
D|----------|-----------|
A|-5-5-5-5--|-----------|
D|----------|--3-2-1-0--|
*instead of these 5s, you can play 0s on the D

That's it! Rate and comment! :)


| /  slide up
| \  slide down
| h  hammer-on
| p  pull-off
| ~  vibrato
| +  harmonic
| x  Mute note
========================================================================

            
            
Suggest correction
Creating personal tab
Creating personal tab
You can edit any tab online and save it as your Personal.

You can edit, replace or remove any tab part or add personal notes – all changes will be seen only by you.

Personal tabs can be accessed anytime from any device, even offline.
Learn more »
Give kudos to tab author, rate the tab!
1 2 3 4 5
comments
print report bad tab
guest
You may want to rate the tab now too:
select rating
Wanna post a correction for this tab? Suggest correction