Oops, an error
Loading. Please wait.

Dont Dink And Drance tab

version 1
version 1

Whole song

Interactive

19,107 views 1 this week
18 commentsread comments
1 2 3 4 5
x 10
add to favorites
×
Save as Personal and add changes to this tab that will be seen only by you. Learn more ›
×
You can save this tab as Personal to edit and correct it or add notes. All changes will be seen only by you. Learn more »
launch autoscroll
font size
0
reset
how to read this tab
guitar tuner
edit
Autoscroll
slow
fast
+/-
esc
set tempo
stop
Author
---------------------------------------------------------------------------
             Don't Dink And Drance - The Devil Wears Prada
---------------------------------------------------------------------------

Tabbed by: ilost8dollars
Email:myspace.com/ilost8dollars

Tuning: (DADGBE) DROP D


the way i play it sounds 100% right and here it is
rate, comment, and send corrections!



0:00 - 0:08                                                                 
e|---------------------------------------------------|  
B|---------------------------------------------------|  
G|---------------------------------------------------|  
D|---------------------------------------------------|  
A|--------555-----444-----333--------555-00-00-00-00-|  
D|-0~-333-----222-----111-----0~-333-----00-00-00-00-|x2
                                         ** ** ** **
0:09 - 0:10
e|------------|
B|------------|
G|------------|
D|------------|
A|------------|
D|-6-5-3-/1\3-|

0:11 - 0:30 
e|----------------------------------------------|
B|----------------------------------------------|
G|----------------------------------------------|
D|----------------------------------------------|
A|-------5p0---8p0--------------5h6-------------|
D|-00-00-----0-----5h8-4-33-33-------6-5-3-/1\3-|x4      
   ** **     *           ** **  

0:31 - 0:38
Guitar 1
e|--------------------|  |-----------|
B|--------------------|  |-----------|
G|--------------------|  |-----------|
D|--------------------|  |-----------|
A|-------5p0---8------|  |-------5p0-|
D|-00-00-----0--5h8-4-|x3|-00-00-----| x1

0:31 - 0:39
Guitar 2
e|-----------------------------------------------------|
B|-----------------------------------------------------|
G|-----------------------------------------------------|
D|-----------------------------------------------------|
A|-0000-0000-00000000-0000-0000-00000000-0000-0--------|
D|-0000-0000-00000000-0000-0000-00000000-0000-0-whammy-|
   **** **** ******** **** **** ******** ****

0:40-0:56
e|----------------------------|  |-------------------------------|
B|----------------------------|  |-------------------------------|
G|----------------------------|  |-------------------------------|
D|-6-5-3-1-3-1-3-6-5-3-000-000|  |-----------------------000-000-|
A|-6-5-3-1-3-1-3-6-5-3-000-000|  |-----------------------000-000-|
D|-6-5-3-1-3-1-3-6-5-3-000-000|x2|-10-9-6-5-6-5-6-10-9-6-000-000-|x2
                       *** ***                           *** ***

0:57 - 1:00                   1:01 - 1:05
e|---------------------------||----------------------------------|
B|---------------------------||----------------------------------|
G|---------------------------||----------------------------------|
D|---------------------------||-------------------------------0--|
A|-0~-0~-0~-0-0000~-0~-0~-0~-||-00-00-00000-00000-00000-00000-0~-|
D|-0~-0~-0~-0-0000~-0~-0~-0~-||-00-00-00000-00000-00000-00000-1~-|
   *  *  *  * ****  *  *  *     ** ** ***** ***** ***** ***** *

1:06 - 1:14   
e|------------------------------------------|
B|------------------------------------------|
G|------------------------------------------|
D|-------------------------------------000--|
A|-00000-00000-00000-00000-00000-00000-000--|
D|-00000-00000-00000-00000-00000-00000-111--|x2 
   ***** ***** ***** ***** ***** ***** ***

1:15 - 1:23
Guitar 1
e|---------------------------------------------------------|
B|---------------------------------------------------------|
G|-/10-----9-----------------------------------------------|
D|--x-(x3)-x-(x3)--------10------------------------------7-|
A|-/8------7-------000-8---000-000-000-000-000-000-000-8---|
D|-----------------000-----000-000-000-000-000-000-000-----|
                   ***     *** *** *** *** *** *** ***

1:15 - 1:23
Guitar 2
e|----------------------------------------------------------|
B|----------------------------------------------------------|
G|-/7------5------------------------------------------------|
D|--x-(x3)-x-(x3)---------10------------------------------7-|
A|-/5------3--------000-8---000-000-000-000-000-000-000-8---|
D|------------------000-----000-000-000-000-000-000-000-----|
                    ***     *** *** *** *** *** *** ***

1:24 - 1:26
e|---------------------|
B|---------------------|
G|---------------------|
D|---------------------|
A|-000-000-000-000-000-|
D|-000-000-000-000-000-|
   *** *** *** *** ***

1:27 - 1:30 
Guitar 1
e|-------------------------------------|
B|-------------------------------------|
G|-1414141414-12-10-1212121212-11-9-10-|
D|-x-x-x-x-x--x--x--x-x-x-x-x--x--x-x--|
A|-1212121212-10-8--1010101010-9--7-8--|
D|-------------------------------------|

1:27 - 1:30 
Guitar 2
e|--------------|
B|--------------|
G|-----------10-|
D|-8----7----x--|
A|-8----7----8--|
D|-8(x8)7(x8)---|
  
1:31 - 1:37 
you can figure out the rhythm
e|--------------------------------------------------------|
B|--------------------------------------------------------|
G|--------------------------------------------------------|
D|--------------------------------------------------------|
A|-0000-0000-0000-0000-0000-0000-0000-0000-0000-0000-0000-|
D|-0000-0000-0000-0000-0000-0000-0000-0000-0000-0000-0000-|
   **** **** **** **** **** **** **** **** **** **** ****

1:38 - 1:42
Guitar 1                          1:43 - 1:55
e|-------------------------------||--------------------------------------|
B|-------------------------------||--------------------------------------|
G|-14-12-11-12-10-9-10-9-7-9-7-5-||--/10-----9------10-----12-----14-----|
D|-x--x--x--x--x--x-x--x-x-x-x-x-||---x-(x4)-x-(x4)-x-(x4)-x-(x8)-x-(x8)-|
A|-12-10-9--10-8--7-8--7-5-7-5-3-||--/8------7------8------10-----12-----|
D|-------------------------------||--------------------------------------|

1:38 - 1:42
Guitar 2
e|--------------------|
B|--------------------|
G|--------------------|
D|-8----10----12------|
A|-8----10----12------|
D|-8(x8)10(x4)12(x4)--|

1:56 - 2:02
e|--------------------------------------------------------------------|
B|--------------------------------------------------------------------|
G|--------------------------------------------------------------------|
D|-----------------------------------------------------------------3~-|
A|--5-----5h6p5-------------------------5-----5h6p5----------------3~-|
D|----000--------000-3h4p3-00-6-0-5-0-3---000-------00-6-0-5-0-3-0-3~-|
      ***        ***       **   *   *     ***       **   *   *

2:03 - 2:10
e|------------------------------------------------------------------|
B|------------------------------------------------------------------|
G|------------------------------------------------------------------|
D|-7-----7/8\7------------------------7-----7/8\7----------------3~-|
A|-5-----5/6\5------------------------5-----5/6\5----------------3~-|
D|---000-------000-3h4p3-00-6-0-5-0-3---000-------00-6-0-5-0-3-0-3~-|
     ***       ***       **   *   *     ***       **   *   *

2:11 - 2:25
e|----------------------------------------------------------------|
B|----------------------------------------------------------------|
G|----15-----------15---------14------------15------------16------|
D|-0~-14(x4)----0~-14(x12)-0~-13(x12)----0~-14(x12)----0~-15(x12)-|
A|-0~-13-----PS-0~-13------0~-12------PS-0~-13------PS-0~-14------|
D|-0~--------PS-0~---------0~---------PS-0~---------PS-0~---------|

2:26 - 2:38
e|---------||---------0-||---------------------|
B|---------||---------0-||---------------------|
G|---------||-----------||---------------------|
D|-0-0-0-0-||-0-0-0-0---||-0-0-0-0----0-0-0-0~-|
A|-0-0-0-0-||-0-0-0-0---||-0-0-0-0----0-0-0-0~-|
D|-0-0-0-0-||-0-0-0-0---||-0-0-0-0----0-0-0-0~-|

2:39 - 2:44
e|-----------------------------------------------------|
B|-----------------------------------------------------|
G|---15---15---15---15---15---15---14---14---14---14\~-|
D|---14---14---14---14---14---14---13---13---13---13\~-|
A|-0-13-0-13-0-13-0-13-0-13-0-13-0-12-0-12-0-12-0-12\~-|
D|-0----0----0----0----0----0----0----0----0----0------|
   *    *    *    *    *    *    *    *    *    *

2:45 - 2:49
e|-----------------------|
B|-----------------------|
G|-----------------------|
D|-----------------------|
A|-0000-000000-1/6\1/6\1-|
D|-1111-111111-1/6\1/6\1-|
   **** ******

2:50 - 2:53
NR = natural harmonics
e|-------------3NH-----------|
B|---------------3NH---------|
G|-----------------3NH-------|
D|-------------------3NH-----|
A|-0000-000000---------3NH---|
D|-1111-111111-----------3NH-|
   **** ******

2:54 - 2:56
e|-----------------------|
B|-----------------------|
G|-----------------------|
D|-----------------------|
A|-0000-000000-1/6\1/6\1-|
D|-1111-111111-1/6\1/6\1-|
   **** ******

2:57 - 3:00
NR = natural harmonic
e|-------------3NH-----------|
B|---------------3NH---------|
G|-----------------3NH-------|
D|-------------------3NH-----|
A|-0000-000000---------3NH---|
D|-1111-111111-----------3NH-|
   **** ******



| PS pickslide
| *  palm mute
| /  slide up
| \  slide down
| h  hammer-on
| p  pull-off
| ~  vibrato
| <*>  harmonic
| x  Mute note
============================================================================
Suggest correction
Creating personal tab
Creating personal tab
You can edit any tab online and save it as your Personal.

You can edit, replace or remove any tab part or add personal notes – all changes will be seen only by you.

Personal tabs can be accessed anytime from any device, even offline.
Learn more »
comments
print report bad tab
18 comments total. Showing first comments.
0 reply
!normajean! 468 Aug 01, 2007 11:11 AM

niccccce.

0 reply
zackwearsprada 10 Aug 03, 2007 01:38 AM

there are just minor errors, but over all, not bad. wish you had the intro.

0 reply
The_Average 10 Sep 25, 2007 08:53 PM

Those arent pinch harmonics at the end.
They're just natural harmonics across the 5th

guest
You may want to rate the tab now too:
select rating
Wanna post a correction for this tab? Suggest correction