Oops, an error
Loading. Please wait.

Escape tab

version 1
version 1

Whole song

Interactive

37,082 views 6 this week
14 commentsread comments
1 2 3 4 5
x 15
add to favorites
×
Save as Personal and add changes to this tab that will be seen only by you. Learn more ›
×
You can save this tab as Personal to edit and correct it or add notes. All changes will be seen only by you. Learn more »
launch autoscroll
font size
0
reset
how to read this tab
guitar tuner
edit
Autoscroll
slow
fast
+/-
esc
set tempo
stop
-------------------------------------------------------------------------------
			     Escape - The Devil Wears Prada
-------------------------------------------------------------------------------
Tabbed by: Rsxkilla
Email:gpknights19@hotmail.com

september 21- update
(some parts were tabbed wrong and fixed)

Tuning:Drop B

my video for the song:http://www.youtube.com/watch?v=VHJN9qhF5Oc&NR=1

i made this video before the update! so a few parts will be slightly off


	0:46-57
	(all notes are tremelo picked)
C#|-------------------------------------------------------|
G#|-------------------------------------------------------|
E |-------------------------------------------------------|
B |-------------------------------------------------------|
F#|-----------------0t------------0t-1t-4t-1t-0t-1-4t-1t--|
B |--0t---1t---4t--------0t---1t--------------------------|(x2)

	0:57-1:03
C#|----------------------|-------------|
G#|----------------------|-------------|
E |----------------------|-------------|
B |--0--0--------0-------|-0--0------0-|
F#|--0--0--0-0-0-0--0-0-0|-0--0--0-0-0-|(fourth time play the 2nd bar)
B |--0--0--0-0-0-0--0-0-0|-0--0--0-0-0-|(x4)

	OH MY GOD THEYRE EVERYWHERE!
	1:03-:17
C#|----------------------------------------------------------------------|
G#|----------------------------------------------------------------------|
E |----------------------------------------------------------------------|
B |----1----------------1----------------1-------------------------------|
F#|-0--1--0-2-1-0-1--0--1--0-2-1-0-1--0--1--0-2-1-0-1---4*-3*------------|
B |-0--1--0-2-1-0-1--0--1--0-2-1-0-1--0--1--0-2-1-0-1--------3*-2*-3*-2*-|(x2)


	1:18-29
C#|--------------------------------------------------------------|
G#|--------------------------------------------------------------|
E |--------------------------------------------------------------|
B |----------------0---------------------------------------------|
F#|--0-0--0-0--0-0-0-----0-0--0-0--0-0--0-0----------------------|
B |--0-0--0-0--0-0-0-----0-0--0-0--0-0--0-0-----0t--1b-----------|
				
				
C#|--------------------------------------------------------------|
G#|--------------------------------------------------------------|
E |--------------------------------------------------------------|
B |------------------3*------------------------------------------|
F#|--0-0--0-0-----------------0-0-0--1-1-1--2-2-2--1-1-1--0-0-0--|
B |--0-0--0-0--0-0-0----0-0---1-1-1--2-2-2--3-3-3--2-2-2--1-1-1--|

	1:30-40
C#|-----------------------------------------------------------|
G#|-----------------------------------------------------------|
E |-----------------------------------------------------------|
B |-----------------------------------------------------------|
F#|-----------------------------------------------------------|
B |--8t---7t--5t--4t----1t--4t---8t---7t--5t--4t----1t--0t----|

	1:41-2:03  (2nd time let the 1's ring out) 
C#|--------------------------------------------------------------------|
G#|---------6~--6~~-------8~--8~~-------6~--6~~------------------------|
E |-----------7~------------9~------------7~---------------------------|
B |--------------------------------------------------------------------|
F#|--0-0-0----------8-8-8---------0-0-0--------4-4-4-4--1-1-1-1--1-1-1-|
B |--0-0-0----------8-8-8---------0-0-0--------4-4-4-4--1-1-1-1--1-1-1-|(2x)

	2:04-15
C#|-------------------------------------------------------|
G#|-------------------------------------------------------|
E |-------------------------------------------------------|
B |-------------------------------------------------------|
F#|-----------------0t------------0t-1t-4t-1t-0t-1-4t-1t--|
B |--0t---1t---4t--------0t---1t--------------------------|(x2)

	2:16-30
C#|----------------------|
G#|----------------------|
E |----------------------|
B |--0--0--------0-------|
F#|--0--0--0-0-0-0--0-0-0|
B |--0--0--0-0-0-0--0-0-0|(x2)

	(rhythm may be slightly off on the breakdowns)
C#|---------------------------|-------------------------------------------------|
G#|---------------------------|-------------------------------------------------|
E |---------------------------|-------------------------------------------------|
B |---------------------------|-------------------------------------------------|
F#|--0--0--0-0-0-0--0-0-0-0-0-|--0--0--0--0-0-0--0-0-0--0t-1t-4t-1t-0t-1-4t-1t--|
B |--1--1--1-1-1-1--1-1-1-1-1-|--1--1--1--1-1-1--1-1-1--------------------------|(x2)


	2:31-36
C#|-----------------------------------------------------------------------|
G#|-----------------------------------------------------------------------|
E |-----------------------------------------------------------------------|
B |----1----------------1----------------1--------------1--0--1--0--------|
F#|-0--1--0-2-1-0-1--0--1--0-2-1-0-1--0--1--0-2-1-0-1---1--0--1--0--0-0-0-|
B |-0--1--0-2-1-0-1--0--1--0-2-1-0-1--0--1--0-2-1-0-1---1--0--1--0--0-0-0-|

	2:37-53 (strumming patterns may be differnt i just guessed for tab)
C#|--------------------------------------------------------------------------------|
G#|--------------------------------------------------------------------------------|
E |--------------------------------------------------------------------------------|
B |--0-------1-----0-------1------5-----8------0-----------------0-----------------|
F#|--0(x12)--1(x4)-0(x12)--1(x4)--5(x8)-8(x8)--0--0-0-0-1--1-1-1-0--0-0-0-1--1-1-1-|
B |--0-------1-----0-------1------5-----8------0--0-0-0-1--1-1-1-0--0-0-0-1--1-1-1-|

	2:37-3:06
C#|-------------------------------|
G#|-------------------------------|
E |--7~~-8~~-7~~-7~~-8~~-7~~------|
B |--6~~-7~~-6~~-6~~-7~~-6~~------|
F#|---------------------------0---|
B |---------------------------0---|

   3:10-32 (on 2nd and 4th repeat play the fill and only play (3) 0,1's)
C#|-----------------------------------------------|----------|
G#|-----------------------------------------------|----------|
E |-----------------------------------------------|--6-7-8-9-|
B |-----------------------------------------------|--5-6-7-8-|
F#|--0---0---0---0--0---0---0---0---0---0--0---0--|----------|
B |--0---0---0---0--0---0---1---1---1---1--1---1--|----------|(x4)

	3:33-47
	     pickslide
C#|----------------------------------------------------------------------------------|
G#|----------------------------------------------------------------------------------|
E |----------------------------------------------------------------------------------|
B |--0~~-1~~-///---------------------------------------------------------------------|
F#|--0~~-1~~-///--1t--5t-3t-1t-5t-3t-1t-0t-----1t--5t-3t-1t-5t-3t-1t-4t--5t--4t--1t--|
B |--0~~-1~~-///---------------------------4t----------------------------------------|


	3:48-4:10  (2nd time let the 1's ring out)
C#|--------------------------------------------------------------------|
G#|---------6~--6~~-------8~--8~~-------6~--6~~------------------------|
E |-----------7~------------9~------------7~---------------------------|
B |--------------------------------------------------------------------|
F#|--0-0-0----------8-8-8---------0-0-0--------4-4-4-4--1-1-1-1--1-1-1-|
B |--0-0-0----------8-8-8---------0-0-0--------4-4-4-4--1-1-1-1--1-1-1-|(2x)

	4:11-35
	(all notes are tremelo picked)
C#|-------------------------------------------------------|
G#|-------------------------------------------------------|
E |-------------------------------------------------------|
B |-------------------------------------------------------|
F#|-----------------0t------------0t-1t-4t-1t-0t-1-4t-1t--|
B |--0t---1t---4t--------0t---1t--------------------------|(x2)

	
C#|-------------|
G#|-------------|
E |-------------|
B |-----0~~~~---|
F#|--0--0~~~~---|
B |--0--0~~~~---|

START THE CHAINSAWS!!!!!!!!!!!

************************************

| t   tremolo picking
| /   slide up
| \   slide down
| h   hammer-on
| p   pull-off
| ~   vibrato
| +   harmonic
| x   Mute note
| b   Bend
| pb  Pre-bend
| br  Bend release
| pbr Pre-bend release
| brb Bend release bend

************************************

            
            
Suggest correction
Creating personal tab
Creating personal tab
You can edit any tab online and save it as your Personal.

You can edit, replace or remove any tab part or add personal notes – all changes will be seen only by you.

Personal tabs can be accessed anytime from any device, even offline.
Learn more »
comments
print report bad tab
14 comments total. Showing first comments.
+3 reply
The Two 10 Sep 12, 2010 11:21 AM

no this is for escape you obviously downloaded the illegal version off of limewire like my friend and got the tracks mixed up. Sick youtube cover btw

+1 reply
rsxkilla 253 Sep 12, 2010 07:19 PM

yeah anyone who downloaded the ep instead of buying it has the issue of wrong names :) ill send u a picture of my EP cover if u like.. thanks for the nice comment :D aswell

0 reply
Thurman91 10 Sep 14, 2010 03:28 PM

Yeah, I downloaded the real one recently. This tab is for Escape, not Anatomy. The real EP is longer too, thanks for making this. amazing song!

guest
You may want to rate the tab now too:
select rating
Wanna post a correction for this tab? Suggest correction