Oops, an error
Loading. Please wait.

Flyover States tab

version 1
version 1

Whole song

Interactive

190 views 3 this week
no commentswrite comment
1 2 3 4 5
2 more votes to show rating
add to favorites
×
Save as Personal and add changes to this tab that will be seen only by you. Learn more ›
×
You can save this tab as Personal to edit and correct it or add notes. All changes will be seen only by you. Learn more »
launch autoscroll
font size
0
reset
how to read this tab
guitar tuner
edit
Autoscroll
slow
fast
+/-
esc
set tempo
stop
[Flyover States]
[Transit Blues]
[The Devil Wears Prada]

Tuning: B Gb B E Ab Db 
Playthrough: https://www.youtube.com/watch?v=QokxZHJL9Mw&t=3s

[Riff 1a] - [00:00] - [01:20] - [x5]
- -----------------------------------------------------------------
- -----------------------------------------------------------------
- -------------7-------------------------------3-------------------
- -------3-------------------------------7-------------------------
- -5-------------------------------5-------------------------------
- -----------------------------------------------------------------

- -----------------------------------------------------------------
- -----------------------------------------------------------------
- -------------3-------------------------2---------------0-------0-
- -----------------------------------------------------------------
- -------5---------------------------------------------------------
- -5-------------------------------0-----------0---3-------2-------

[Riff 1b] - [00:16] - [01:20]
- ---------------------------------------------------------------------
- -11~-------------------------------------------10-10-10~-------------
- ---------------------------------------------------------------------
- ---------------------------------------------------------------------
- ---------------------------------------------------------------------
- ---------------------------------------------------------------------

the three last notes in Riff 1b repeat every 4 bars

[Riff 1c] - [00:21] - [01:20] - [x4]
- -------------------------------------------------------------------------------
- ----------------------------------------10----10----10-------------------------
- -10----10----10----10~---------------------10----10----10-9~-------------------
- ----12----12----12-------------------------------------------------------------
- -------------------------------------------------------------------------------
- -------------------------------------------------------------------------------

- -------------------------------------------------------------------------------
- --13----13----13----11~--------------------10----10----10----10~---8-----------
- -----10----10----10---------------------------10----10----10---------9~---9/10-
- -------------------------------------------------------------------------------
- -------------------------------------------------------------------------------
- -------------------------------------------------------------------------------

[Riff 1d] - [00:51] - [01:20] - [x2]
- -----------------------------------------------------------------
- -----------------------------------------------------------------
- -----------------------------------------------------------------
- -----------------------------------------------------------------
- -0-0-0-0-0-0-0-0-0-0-0-0-0-0-0-0-3-3-3-3-3-3-3-3-3-3-3-3-3-3-3-3-
- -0-0-0-0-0-0-0-0-0-0-0-0-0-0-0-0-3-3-3-3-3-3-3-3-3-3-3-3-3-3-3-3-
PM ...............................................................

- -----------------------------------------------------------------
- -----------------------------------------------------------------
- -----------------------------------------------------------------
- -----------------------------------------------------------------
- -5-5-5-5-5-5-5-5-5-5-5-5-5-5-5-5-0-0-0-0-0-0-0-0-3-3-3-3-2-2-2-2-
- -5-5-5-5-5-5-5-5-5-5-5-5-5-5-5-5-0-0-0-0-0-0-0-0-3-3-3-3-2-2-2-2-
PM ...............................................................


[Riff 2, Guitar 1 & 2] - [01:20] - [01:34]
- -------------------------------------------------------------------------------
- -------------------------------------------------------------------------------
- -------------------------------------------------------------------------------
- -------------------------------------------------------------------------------
- ------------------------------------------------/3\----------------/3\-5-------
- ------------------------------------------0-----000-0-0-12\1---1-1-000---3-1---
PM                                                ...                ...
- -------------------------------------------------------------------------------
- -------------------------------------------------------------------------------
- -------------------------------------------------------------------------------
- -------------------------------------------------------------------------------
- -------/3\------------------------1-[1br]-------/3\----------------/3\-5-------
- -0-----000-0-0-12\1---1-1-000-1-1---------0-----000-0-0-12\1---1-1-000---3-1---
PM       ...                ...                   ...                ...


- -----------------------------------------------------------------------------
- -----------------------------------------------------------------------------
- -----------------------------------------------------------------------------
- -----------------------------------------------------------------------------
- -------/3\------------------------1-0h1-------/3\----------------/3\-5-------
- -0-----000-0-0-12\1---1-1-000-1-1-------0-----000-0-0-12\1---1-1-000---3-1---
PM       ...                ...                 ...                ...
- -----------------------------------------------------------------------------
- -----------------------------------------------------------------------------
- -----------------------------------------------------------------------------
- -----------------------------------------------------------------------------
- -------/3\------------------------1-0h1-------/3\----------------/3\-5-------
- -0-----000-0-0-12\1---1-1-000-1-1-------0-----000-0-0-12\1---1-1-000---3-1---
PM       ...                ...                 ...                ...


[Riff 3, Guitar 1 & 2] - [01:34] - [02:03] - [x4]
- -----------------------------------------------------------------------
- -----------------------------------------------------------------------
- -----------------------------------------------------------------------
- -0~------------------------------------1~------------------------------
- -0~------------------------------------1~------------------------------
- -0~------------------------------------1~------------------------------
-
- -----------------------------------------------------------------------
- -----------10----------------10----------------------------------------
- --------10----------------10--------10---------12----------------------
- -----12----------------12----------------------------------------------
- -----------------------------------------------------------------------
- -----------------------------------------------------------------------


[Riff 4] - [02:03] - [02:32]
- -----------------------------------------------------------------
- -----------------------------------------------------------------
- -----------------------------------------------------------------
- -----------------------------------------------------------------
- -0-0-0-0-0-0-0-0-0-0-0-0-0-0-0-0-3-3-3-3-3-3-3-3-3-3-3-3-3-3-3-3-
- -0-0-0-0-0-0-0-0-0-0-0-0-0-0-0-0-3-3-3-3-3-3-3-3-3-3-3-3-3-3-3-3-
PM ...............................................................

- -----------------------------------------------------------------
- -----------------------------------------------------------------
- -----------------------------------------------------------------
- -----------------------------------------------------------------
- -5-5-5-5-5-5-5-5-5-5-5-5-5-5-5-5-0-0-0-0-0-0-0-0-3-3-3-3-2-2-2-2-
- -5-5-5-5-5-5-5-5-5-5-5-5-5-5-5-5-0-0-0-0-0-0-0-0-3-3-3-3-2-2-2-2-
PM ...............................................................

- -----------------------------------------------------------------
- -----------------------------------------------------------------
- -----------------------------------------------------------------
- -----------------------------------------------------------------
- -----------------------------------------------------------------
- -0-0-0-0-0-0-0-0-0-0-0-0-0-0-0-0-3-3-3-3-3-3-3-3-3-3-3-3-3-3-3-3-

- -----------------------------------------------------------------
- -----------------------------------------------------------------
- -----------------------------------------------------------------
- -----------------------------------------------------------------
- -----------------------------------------------------------------
- -5-5-5-5-5-5-5-5-5-5-5-5-5-5-5-5-0-0-0-0-0-0-0-0-3-3-3-3-2-2-2-2-

[Riff 5a] - [02:32] - [02:54]
- -------------------------------------------------------------------------------------------------
- -------------------------------------------------------------------------------------------------
- -------------------------------------------------------------------------------------------------
- -0---0-0-0-0---0-0---0-0-0-0-0---8---8-8-8-8---8-8---8-8-8-8-8\----------------------------------
- -0---0-0-0-0---0-0---0-0-0-0-0---8---8-8-8-8---8-8---8-8-8-8-8\----------------------------------
- -0---0-0-0-0---0-0---0-0-0-0-0---8---8-8-8-8---8-8---8-8-8-8-8\--3-3-3-3-3-3-3-3-3-3-3-3-3-3-3-3-

- -------------------------------------------------------------------------------------------------
- -------------------------------------------------------------------------------------------------
- -------------------------------------------------------------------------------------------------
- -0---0-0-0-0---0-0---0-0-0-0-0---8---8-8-8-8---8-8---8-8-8-8-8\----------------------------------
- -0---0-0-0-0---0-0---0-0-0-0-0---8---8-8-8-8---8-8---8-8-8-8-8\----------------------------------
- -0---0-0-0-0---0-0---0-0-0-0-0---8---8-8-8-8---8-8---8-8-8-8-8\--1-1-1-1-1-1-1-1-1-1-1-1-1-1-1-1-

gradually bend 1's at the end

[Riff 5b] - [02:32] - [02:54]
- -10-10-10-10-10-10-10-10-10-10-10-10-10-10-10-10-------------------------------------------------
- -------------------------------------------------13-13-13-13-13-13-13-13-13-13-13-13-13-13-13-13-
- -------------------------------------------------------------------------------------------------
- -------------------------------------------------------------------------------------------------
- -------------------------------------------------------------------------------------------------
- -------------------------------------------------------------------------------------------------

- -------------------------------------------------------------------------------------------------
- -10-10-10-10-10-10-10-10-10-10-10-10-10-10-10-10-10-10-10-10-10-10-10-10-10-10-10-10-10-10-10-10-
- -------------------------------------------------------------------------------------------------
- -------------------------------------------------------------------------------------------------
- -------------------------------------------------------------------------------------------------
- -------------------------------------------------------------------------------------------------

- -------------------------------------------------------------------------------------------------
- -11-11-11-11-11-11-11-11-11-11-11-11-11-11-11-11-------------------------------------------------
- -------------------------------------------------12-12-12-12-12-12-12-12-12-12-12-12-12-12-12-12-
- -------------------------------------------------------------------------------------------------
- -------------------------------------------------------------------------------------------------
- -------------------------------------------------------------------------------------------------

gradually bend last eight 12's at the end

[Riff 6, Guitar 1 & 2] - [02:54] - [03:22]
- -------------------------------------------------------------------------------
- -------------------------------------------------------------------------------
- -------------------------------------------------------------------------------
- -------------------------------------------------------------------------------
- ------------------------------------------------/3\----------------/3\-5-------
- ------------------------------------------0-----000-0-0-12\1---1-1-000---3-1---
PM                                                ...                ...
- -------------------------------------------------------------------------------
- -------------------------------------------------------------------------------
- -------------------------------------------------------------------------------
- -------------------------------------------------------------------------------
- -------/3\------------------------1-[1br]-------/3\----------------/3\-5-------
- -0-----000-0-0-12\1---1-1-000-1-1---------0-----000-0-0-12\1---1-1-000---3-1---
PM       ...                ...                   ...                ...


- -----------------------------------------------------------------------------------------------------
- -----------------------------------------------------------------------------------------------------
- -----------------------------------------------------------------------------------------------------
- -----------------------------------------------------------------------------------------------------
- -------/3\------------------------1-0h1-------/3\----------------/3\-5-------5-------0---------------
- -0-----000-0-0-12\1---1-1-000-1-1-------0-----000-0-0-12\1---1-1-000---3-1-----3-1---0---------------
PM       ...                ...                 ...                ...                 .
- -----------------------------------------------------------------------------------------------------
- -----------------------------------------------------------------------------------------------------
- -----------------------------------------------------------------------------------------------------
- -----------------------------------------------------------------------------------------------------
- -------/3\------------------------1-0h1-------/3\----------------/3\-5-------5-------0---------------
- -0-----000-0-0-12\1---1-1-000-1-1-------0-----000-0-0-12\1---1-1-000---3-1-----3-1---0---------------
PM       ...                ...                 ...                ...                 .

[Symbols]

PM... Palm Mute notes with (...) under them
AP... Alternate Pick notes with (...) under them
h     Hammer On
p     Pull Off
[ ]   Harmonic
/     Slide Up
\     Slide Down
x     Dead Note
b     Bend
hb    Hold Bend
pb    Pre-Bend
r     Release Bend
(x )  Play Notes x amount of times
~     Let Ring
\\\   Pick Slide Down
///   Pick Slide Up
/ 3 \ Notes are triplets (3 notes in the space of two)
w\    Whammy Bar Down
w/    Whammy Bar Up
wh    Whammy Bar Hold
T     Right Hand Tap
L     Left Hand Tap

:)

            
            
Suggest correction
Creating personal tab
Creating personal tab
You can edit any tab online and save it as your Personal.

You can edit, replace or remove any tab part or add personal notes – all changes will be seen only by you.

Personal tabs can be accessed anytime from any device, even offline.
Learn more »
Give kudos to tab author, rate the tab!
1 2 3 4 5
comments
print report bad tab
guest
You may want to rate the tab now too:
select rating
Wanna post a correction for this tab? Suggest correction