Oops, an error
Loading. Please wait.

Gauntlet Of Solitude intro tab

version 1
version 1

Intro

Whole song

Interactive

2,889 views 1 this week
3 commentsread comments
1 2 3 4 5
x 3
add to favorites
×
Save as Personal and add changes to this tab that will be seen only by you. Learn more ›
×
You can save this tab as Personal to edit and correct it or add notes. All changes will be seen only by you. Learn more »
launch autoscroll
font size
0
reset
how to read this tab
guitar tuner
edit
Autoscroll
slow
fast
+/-
esc
set tempo
stop
Okay Drop C tuning ( CGCFAD )
this is really easy.
it might be wrong, but it sounds perfect to me, i didn't figure out much of it this is
first tab but you could give it a try.


-----------------5--3---2h3----------------5---10------------------|
----------7--8----------------------7--8---------------------------|
----6--7----------------------6--7---------------------------------|
-------------------------------------------------------------------|
-------------------------------------------------------------------|
-------------------------------------------------------------------|

the 10 is kind of a bend on the string, or a slide down it is hard to tell but that kind
summarizes it up. don't be pissed if it's bad. like i said, this is my first tab. it's
much of the intro but yeah i will shut up now, i don't even know if anyone here like 
Wears Prada, but hopefully they do!

www.myspace.com/tdwp

            
            
Suggest correction
Creating personal tab
Creating personal tab
You can edit any tab online and save it as your Personal.

You can edit, replace or remove any tab part or add personal notes – all changes will be seen only by you.

Personal tabs can be accessed anytime from any device, even offline.
Learn more »
Give kudos to tab author, rate the tab!
1 2 3 4 5
comments
print report bad tab
3 comments total.
0 reply
Phillip_BTA_fan 10 Nov 02, 2006 03:42 PM

It's in Drop-D, the intro is more like this:

Guitar 1&2
D-0~---------------12/--------------
A-0~---------------12/--------------
D-0~---------------12/--------------

Guitar 1
e------------3-1-0h1------------3-8~
B--------5-6----------------5-6-----
G----4-5----------------4-5---------
D-----------------------------------
A-00-----------------00-------------
D-00-----------------00-------------
pm.. ..

Guitar 2
e-----------------------------------
B-----------------------------------
G-----------------------------------
D-----------------------------------
A-00-----------------00-------------
D-00-----------------00-------------
pm.. ..


e------------3-1-0h1------------3-8/
B--------5-6----------------5-6-----
G----4-5----------------4-5---------
D-----------------------------------
A-00-----------------00-------------
D-00-----------------00-------------
pm.. ..

Guitar 2
e-----------------------------------
B-----------------------------------
G-----------------------------------
D-----------------------------------
A-00-----------------00-------------
D-00-----------------00-------------
pm.. ..

So yeah, you basically got all the notes right, but there's palm muting and I got the very beginning part. I think all of their songs are in Drop-D, and there is a lot of open palm muting on the D, A, and D strings. Hope that helps.

0 reply
xxunderoathxxcm 10 Nov 04, 2006 11:39 AM

TDWP rocks do more tabs

0 reply
bulletrocks522 351 Oct 02, 2007 05:33 PM

good except tuning.

guest
You may want to rate the tab now too:
select rating
Wanna post a correction for this tab? Suggest correction