Oops, an error
Loading. Please wait.

Gauntlet Of Solitude tab

version 1
version 1

Whole song

Interactive

8,372 views 1 this week
2 commentsread comments
1 2 3 4 5
1 last vote to show rating
add to favorites
×
Save as Personal and add changes to this tab that will be seen only by you. Learn more ›
×
You can save this tab as Personal to edit and correct it or add notes. All changes will be seen only by you. Learn more »
launch autoscroll
font size
0
reset
how to read this tab
guitar tuner
edit
Autoscroll
slow
fast
+/-
esc
set tempo
stop
-------------------------------------------------------------------------------
                    Gauntlet of Solitude - The Devil Wears Prada
-------------------------------------------------------------------------------
Tabbed by: Brian Myers
Email: Garageguitar8362@aim.com

Tuning:Drop D

right guitar on top
left on bottom

E|-------------------------------|
B|-------------------------------|
G|-------------------------------|
D|-0~-------------------12/------|
A|-0~-------------------12/------|
D|-0~-------------------12/------|
 |
E|-------------------------------|
B|-------------------------------|
G|-------------------------------|
D|-0~----------------------------|
A|-0~----------------------------|
D|-0~----------------------------|

E|---------------------------|
B|---------------------------|
G|---------------------------|
D|---------14-15-17-15-14h15-|
A|---14-15-------------------|
D|-00--0--0--0--0--0--0------|
 | **  *  *  *  *  *  *
E|---------------------------|
B|---------------------------|
G|---------------------------|
D|-00------------------------|
A|-00------------------------|
D|-00------------------------|
   **
                    
E|------------------------| 
B|------------------------|
G|------------------17^^--|
D|---------14-15-17-------|
A|---14-15----------------|
D|-00--0--0--0--0--0------| bends are 1/2 bends and returns
 | **  *  *  *  *  *
E|---------------------------|
B|---------------------------|
G|---------------------------|
D|-00------------------------|
A|-00------------------------|
D|-00------------------------|
   **

E|---------------------------|
B|---------------------------|
G|---------------------------|
D|---------14-15-17-15-14h15-|
A|---14-15-------------------|
D|-00--0--0--0--0--0--0------|
 | **  *  *  *  *  *  *
E|---------------------------|
B|---------------------------|
G|---------------------------|
D|-00------------------------|
A|-00------------------------|
D|-00------------------------|
   **
                      
E|------------------------| 
B|------------------------|
G|------------------17^\--|
D|---------14-15-17-------|
A|---14-15----------------|
D|-00--0--0--0--0--0------|
 | **  *  *  *  *  * 
E|------------------------|
B|------------------------|
G|------------------------|
D|-00---------------12\---|
A|-00---------------12\---|
D|-00---------------12\---|
   ** 

E|---------------------------|
B|---------------------------|
G|---------------------------|
D|---------14-15-17-15-14h15-|
A|---14-15-------------------|
D|-00--0--0--0--0--0--0------|
 | **  *  *  *  *  *  *
E|---------------------------|
B|---------------------------|
G|---------14-15-17-15-14h15-|
D|---14-15-------------------|
A|---------------------------|
D|-00--0--0--0--0--0--0------|
   **  *  *  *  *  *  *

E|------------------------------|
B|------------------------------|
G|------------------------------|
D|---------14-15-17-15H17-14h15-|
A|---14-15----------------------|
D|-00--0--0--0--0--0--0---------|
 | **  *  *  *  *  *  *
E|------------------------------|
B|------------------------------|
G|---------14-15-17-15H17-14h15-|
D|---14-15----------------------|
A|------------------------------|
D|-00--0--0--0--0--0--0---------|
   **  *  *  *  *  *  *

E|---------------------------|
B|---------------------------|
G|---------------------------|
D|---------14-15-17-15-14h15-|
A|---14-15-------------------|
D|-00--0--0--0--0--0--0------|
 | **  *  *  *  *  *  *
E|---------------------------|
B|---------------------------|
G|---------14-15-17-15-14h15-|
D|---14-15-------------------|
A|---------------------------|
D|-00--0--0--0--0--0--0------|
   **  *  *  *  *  *  *

E|------------------------------|
B|------------------------------|
G|------------------------------|
D|---------14-15-17-15H17-14h15-|
A|---14-15----------------------|
D|-00--0--0--0--0--0--0---------|
 | **  *  *  *  *  *  *
E|------------------------------|
B|------------------------------|
G|---------14-15-17-15H17-14h15-|
D|---14-15----------------------|
A|------------------------------|
D|-00--0--0--0--0--0--0---------|
   **  *  *  *  *  *  *
E|------------------------|
B|------------------------|
G|-10--10--101010\--------|
D|-x---x---x-x-x------0~--|
A|-8---8---8-8-8-\----0~--|
D|--------------------0~--|
 |
E|------------------------|
B|------------------------|
G|-10--10--101010\--------|
D|-x---x---x-x-x------0~--|
A|-8---8---8-8-8-\----0~--|
D|--------------------0~--|

then both guitars hit different off chords...
havn't figured out yet(one's open d, other hits
fret 6 on the a string)

then key slide

E|-------------------------------|
B|-------------------------------|
G|-------------------------------|
D|-0-0-0-0~--5420----------------|
A|-0-0-0-0~------5420------------|
D|-0-0-0-0~----------5420--------|
 | * * * *
E|-------------------------------|
B|-------------------------------|
G|-------------------------------|
D|-0-0-0-0~----------------------|
A|-0-0-0-0~----------------------|
D|-0-0-0-0~----------------------|
   * * * *

E|-------------------------------|
B|-------------------------------|
G|-------------------------------|
D|-0-0-0-0~--5420----------------|
A|-0-0-0-0~------5420------------|
D|-0-0-0-0~----------5-----------|
 | * * * *
E|-------------------------------|
B|-------------------------------|
G|-------------------------------|
D|-0-0-0-0~----------------------|
A|-0-0-0-0~----------------------|
D|-0-0-0-0~----------------------|
   * * * *

E|-------------------------------|
B|-------------------------------|
G|-------------------------------|
D|-0-0-0-0~--5420----------------|
A|-0-0-0-0~------5420------------|
D|-0-0-0-0~----------5420--------|
 | * * * *
E|-------------------------------|
B|-------------------------------|
G|-------------------------------|
D|-0-0-0-0~----------------------|
A|-0-0-0-0~----------------------|
D|-0-0-0-0~----------------------|
   * * * *

E|-------------------------------|
B|-------------------------------|
G|-------------------------------|
D|-0-0-0-0~----------------------|
A|-0-0-0-0~----------------------|
D|-0-0-0-0~--3^------------------|1/2 note pinch harmonic bend
 | * * * *
E|-------------------------------|
B|-------------------------------|
G|-------------------------------|
D|-0-0-0-0~----------------------|
A|-0-0-0-0~----------------------|
D|-0-0-0-0~----------------------|
   * * * *

E|-----------------------|
B|-----------------------|
G|-----------------------|
D|-0--8p0-7p0-0--8p0-7p0-|
A|-0----------0----------|
D|-0-0--------0-0--------|
 |   *          *
E|-----------------------|
B|-----------------------|
G|-----------------------|
D|-0----------0----------|
A|-0----------0----------|
D|-0----------0----------|


E|-----------------------------| the
B|-----------------------------| chords
G|------------10---------------| here
D|-0--8p0-7p0-x--8p0-7p0-12p10-| arn't
A|-0----------8----------------| close
D|-0-0---------0---------------|
 |   *          *
E|-----------------------------|
B|-----------------------------| just
G|-----------------------------| really
D|-0----------8----------------| made
A|-0----------7----------------| them
D|-0----------8----------------| up

E|-----------------------|
B|-----------------------|
G|-----------------------|
D|-0--8p0-7p0-0--8p0-7p0-|
A|-0----------0----------|
D|-0-0--------0-0--------|
 |   *          *
E|-----------------------|
B|-----------------------|
G|-----------------------|
D|-0----------0----------|
A|-0----------0----------|
D|-0----------0----------|

rhythm's not too hard
E|-------------------|
B|-------------------|
G|-10-12--15--17--19-|
D|-------------------|
A|--8-10--13--15--17-|
D|-------------------|
 |
E|-------------------|
B|-------------------|
G|-10-12--15--17--19-|
D|--x--x---x---x---x-|
A|--8-10--13--15--17-|
D|-------------------|

rhythm's not too hard again
E|-----------------------|
B|-----------------------|
G|-------10-----------10-|
D|-0------x-----0------x-|
A|-0------8-----0------8-|
D|-0------------0--------|
 |
E|-----------------------|
B|-----------------------|
G|-------10-----------10-|
D|-0------x-----0------x-|
A|-0------8-----0------8-|
D|-0------------0--------|

while that last chord's ringing
they start playing that soft stuff
should have that up soon

but i know one of the chords if
that helps you


B|--5-6-|
G|--7-7-|

he revolves around that and goes lower

i don't know the upwards slides either
should have it soon though

and for the ending breakdown,
very simple... only uses two chords

D|-0-|   E|----|
A|-0-| & B|-12-|
D|-0-|   G|-15-|


hope you've enjoyed =)

            
            
Suggest correction
Creating personal tab
Creating personal tab
You can edit any tab online and save it as your Personal.

You can edit, replace or remove any tab part or add personal notes – all changes will be seen only by you.

Personal tabs can be accessed anytime from any device, even offline.
Learn more »
Give kudos to tab author, rate the tab!
1 2 3 4 5
comments
print report bad tab
2 comments total.
-1 reply
bassboy12 37 Jul 27, 2008 06:17 PM

hey...i just wanted to tell you the slow part for gauntlet of solitude cuz i like your version better...

but it's

e----------------------------------------------------------------
b-9-9-9-7-7-7-5-5-4-4-4-5-5-5-4-4-2-2-2-4-4-4-5-5-2-2-2-4-4-4-5-5
g-7-7-7-7-7-7-7-7-7-7-7-7-7-7-7-7-3-3-3-3-3-3-3-3-3-3-3-3-3-3-3-3
d----------------------------------------------------------------
a----------------------------------------------------------------
d----------------------------------------------------------------


repeat that however many times...put that on there and it'll be perfect...unless my guitar's out of tune which it probably is..but even so...it's maybe one or two frets off on the B string...so thanks for your time...

0 reply
wtfxsteven 204 Nov 21, 2010 11:14 AM

e-----------------------------------------------------------
b-10----8------6------5------6------6------4------2----1----
g-7-(x3)7-(x3)-7-(x2)-7-(x3)-7-(x2)-3-(x3)-3-(x3)-3(x2)3(x3)
d-----------------------------------------------------------
a-----------------------------------------------------------
d-----------------------------------------------------------

reapeat as much as needed

im pretty sure thats how it is :)

guest
You may want to rate the tab now too:
select rating
Wanna post a correction for this tab? Suggest correction