Oops, an error
Loading. Please wait.

Goats On A Boat bass

version 1
version 1

Whole song

Interactive

5,388 views 1 this week
3 commentsread comments
1 2 3 4 5
x 3
add to favorites
×
Save as Personal and add changes to this tab that will be seen only by you. Learn more ›
×
You can save this tab as Personal to edit and correct it or add notes. All changes will be seen only by you. Learn more »
launch autoscroll
font size
0
reset
guitar tuner
edit
Autoscroll
slow
fast
+/-
esc
set tempo
stop
I know it's late but the other tab for this song is just an intro and I used some part 
zachyboy006 intro tab but some parts sounded wrong to me. This is my first tab so don't 
mean.Please Rate and Comment.

+++++++++++++++++++++++++++++++++++++++
|The Devil Wears Prada-Goats On A Boat|
+++++++++++++++++++++++++++++++++++++++
Tuning:Drop D

After the sound effects
G|-------------|---------------|-------------|--------------------|
D|-------------|---------------|-------------|--------------------|
A|-------------|---------------|-------------|--------------------|
D|-0--0--0-3-1-|-0--00--0-1/6\-|-0--0--0-3-1-|-0--00--0-3-1-3-1-0-|

|---------------|---------------|---------------|-----------------|
|---------------|---------------|---------------|-----------------|
|-----------1-3-|---------5h6-5-|-----------1-3-|-----------------|
|-0-000-000-----|-000-000-------|-0-000-000-----|-0-000-000-1h3-1-|

|---------------|---------------|---------------|-----------------|
|---------------|---------------|---------------|-----------------|
|-----------1-3-|---------5h6-5-|-----------1-3-|-----------------|
|-0-000-000-----|-000-000-------|-0-000-000-----|-0-000-000-1h3-1-|

|------------|------------|------------|------------|
|------------|------------|------------|------------|
|--------1-3-|------5h6-5-|--------1-3-|------------|
|-0-0000-----|-0000-------|-0-0000-----|-0000-1h3-1-|

|------------|------------|------------|------------|----------|
|------------|------------|------------|------------|----------|
|--------1-3-|------5h6-5-|--------1-3-|------------|----------|
|-0-0000-----|-0000-------|-0-0000-----|-0000-1h3-1-|--\10-----|

after the keys play.
|-------------------------|---------------------------------|
|-------------------------|---------------------------------|
|-------------------------|---------------------------------|
|-------------------------|-0-0-0-0-00-0-0-0-0-00-0-0-0-0-0-|

"Day by Day Time after Time again."
|-----------------|-----------------|-----------------|-----------------|
|-----------------|-----------------|-----------------|-----------------|
|-----------------|-----------------|-----------------|-----------------|
|-3-3-3-3-3-3-3-3-|-3-3-3-3-3-3-3-3-|-5-5-5-5-5-5-5-5-|-5-5-5-5-5-5-5-5-|

|-------------------------|-------------------------|
|-------------------------|-------------------------|
|-------------------------|-------------------------|
|-0~----00000000-0--------|-3~----33333333-3--------|

|---------------|---------------|---------------|-----------|
|---------------|---------------|---------------|-----------|
|-----------1-3-|---------5h6-5-|-----------1-3-|-33333-1-0-|
|-0-000-000-----|-000-000-------|-0-000-000-----|-----------|

"You distort chronology."
|-------------------------|
|-------------------------|
|-66666666-5555-33333-1-0-|
|-------------------------|

|---------------|---------------|---------------|-----------|
|---------------|---------------|---------------|-----------|
|-----------1-3-|---------5h6-5-|-----------1-3-|-33333-1-0-|
|-0-000-000-----|-000-000-------|-0-000-000-----|-----------|

"You foster of terror."
|-------------------|
|-------------------|
|-66666666-55555555-|
|-------------------|

The picking or strumming is probably wrong wright here on the open D string.
|---------------------------------------------------|
|---------------------------------------------------|
|---------------------------------------------------|
|-00000-0-0----00000-/12\-00000-0-0----00000-332321-|

"Bury your diamonds destroy your rubies."
|------------------------------------------------|
|------------------------------------------------|
|------------------------------------------------|
|-00000-0-0----00000-3323210-00000-0-0----00000--|

"We are searching for..." This is the part I'm not sure about the most.
|------------------------------------|------------------------------------|
|------------------------------------|------------------------------------|
|-33333333-55555555-1111111111111111-|-33333333-55555555-1111111111111111-|
|------------------------------------|------------------------------------|

|------------------------------------|-------------------|
|------------------------------------|-------------------|
|-33333333-55555555-1111111111111111-|-33333333-55555555-|
|------------------------------------|-------------------|

|--------------------|--------------------|-------------------|--------|
|--------------------|--------------------|-------------------|--------|
|--------------------|--------------------|-------------------|--------|
|-0--000--0000000000-|-0--000--0000000000-|-0--000-0000000000-|-0--000-|

|--------------------------------------------|
|--------------------------------------------|
|-8-8-8-7-7-7-------------8-8-8-7-7-7--------|
|--------------0-00000-000---------------\10-|

|--------------------------------------------------|
|--------------------------------------------------|
|-8-8-8-7-7-7--------------8-8-8-7-7-7-------------|
|--------------0-00000-000-------------0-00000-000-|

|-----------------------------------------------------|
|-----------------------------------------------------|
|-8-8-8-7-7-7--888-777-888-777------------------------|
|------------------------------0--------------------0-|

"Perched upon our towers..." The strumming is probably off on this breakdown.
|-------------------------------------------|
|-------------------------------------------|
|-------------------------------------------|
|-0-000000-0000--00000-00000-00000-0----0-0-|

|-------------------------------------|
|-------------------------------------|
|-------------------------------------|
|-000000-0000-00000--0000-00000-00000-|

|--------------------------------------------------------------------|
|--------------------------------------------------------------------|
|-----7777777777-----5/7777777777-----7777777777-888888888-555555555-|
|-0--------------0----------------0----------------------------------|

|--------------------------------------|
|----5-3----2-3-1h2----5-3-1h3-1h3-1h3-|
|--------------------------------------|
|-00-----00---------00-----------------|

|--------------------------------------|
|----5-3----2-3-1h2----5-3-1h3-1h3-1h3-|
|--------------------------------------|
|-00-----00---------00-----------------|

|------------------------------------|
|------------------------------------|
|----5-3----2-3-1----5-3-1h3-1h3-1h3-|
|-00-----00-------00-----------------|

|------------------------------------|
|------------------------------------|
|----5-3----2-3-1----5-3-1h3-1h3-1h3-|
|-00-----00-------00-----------------|

|--------------------------------------------------------------------|
|--------------------------------------------------------------------|
|-----7777777777-----5/7777777777-----7777777777-888888888-555555555-|
|-0--------------0----------------0----------------------------------|

|-----------------|-----------------|
|-----------------|-----------------|
|-----------------|-----------------|
|-3-3-3-3-3-3-3-3-|-5-5-5-5-5-5-5-5-|

|-----------------|-------------------------|
|-----------------|-------------------------|
|-----------------|-------------------------|
|-7-7-7-7-7-7-7-7-|-10-10-10-10-10-10-10-10-|

|---------------|
|---------------|
|---------------|
|-0--00000-0000-|

Lyrics:
Whatever happened to the integrity found within a family?
I return your glare.
And my bones are chilled with some sort of sickening recipe of fear and anger.
Day by Day.Time after Time again.
You distort chronology.
You foster of terror.
Bury your diamonds.Destroy your rubies.
We are searching for security in tragedy.
Take a look around and notice the black (tapestries.)
Drowning (our walls of)simplicity.
We are the constant decay.
Each note will disintegrate perched upon our towers.
Motionless and miserable.
Here's to a comftorable casket.
How deceiving is the cemetary of motivation.
I wish to write a conclusion.

That's it remember it's my first tab.
+++++++
|Enjoy|
+++++++

            
            
Suggest correction
Creating personal tab
Creating personal tab
You can edit any tab online and save it as your Personal.

You can edit, replace or remove any tab part or add personal notes – all changes will be seen only by you.

Personal tabs can be accessed anytime from any device, even offline.
Learn more »
Give kudos to tab author, rate the tab!
1 2 3 4 5
comments
print report bad tab
3 comments total.
0 reply
Mahino 477 Jan 08, 2010 11:32 AM

Thank you so much dude! I was looking for a tab like this for a long time! Dunno why no one tabs this song for bass, cuz it's seriously awesome, but whatever, you rock dude! Thank you so much for this tab! =)

0 reply
Mahino 477 Jan 08, 2010 11:33 AM

I'm not that good at tabbing, could you make a nice tab of ''Reptar, king of the ozone'' from The devil wears prada for me? (bass) I would be grateful :D

0 reply
Stereolove94 10 Jul 16, 2011 07:06 PM

I think on the part where you're strumming the "3-5-1" sequence, it should start with the 1, not the 3. So, like "1-3-5". Sounds a lot better to me honestly.

guest
Wanna post a correction for this tab? Suggest correction