Oops, an error
Loading. Please wait.

Hey John Whats Your Name Again tab

version 2
version 2

Whole song

Interactive

74,884 views 6 this week
16 commentsread comments
1 2 3 4 5
x 33
add to favorites
×
Save as Personal and add changes to this tab that will be seen only by you. Learn more ›
×
You can save this tab as Personal to edit and correct it or add notes. All changes will be seen only by you. Learn more »
launch autoscroll
font size
0
reset
how to read this tab
guitar tuner
edit
Autoscroll
slow
fast
+/-
esc
set tempo
stop
Difficulty
intermediate
Title: Hey John, What's your name again?
Artist: The Devil Wears Prada
Album: Plagues

Tabbed by: www.myspace.com/ryohazuk1
Email:ryohazuki@optonline.net

This is my first tab ever so please dont knock me its near perfect as i've played it 
times. Credit goes to: www.myspace.com/chiefwiggums83 for previous tab his is good i just 
on it as it had some mistakes and i used his for a layout, as im really bad at tabbing.

Tuning:Drop D(D A D G B E)

Intro - 0:00-0:09
"The concept of fashion is the one to blame:"
e|------------------|
B|------------------|
G|------------------|x2
d|-0~------8~------5|
A|-0~------8~------5|
D|-0~------8~------5|


0:10-0:19
"Painting the portrait of conviction-less existence"
e|----------------------------------------------------|
B|----------------------------------------------------|
G|----------------------------------------------------|
d|------------------------------------------10--------|
A|-8---7--7h8---8--7---7h8--10--8--7h8--8-7-----8-7-10| x2
D|--00--00-------00--00-------00-00-------------------|
P.M ...  ..      ..  ..       .. ..


0:20-0:27
Well, it must be difficult,
     3
  /-----\
e|---------------------------------|
B|-10---------12---------9---------|
G|-x--(x16)---x--(x16)---x--(x16)--|
d|-8----------10---------7---------|
A|---------------------------------|
D|---------------------------------|


0:28-0:30
Being so gorgeous
e|-----------|
B|-----------|
G|-----------|
d|--------0~-|
A|-0-0-00-0~-|
D|-0-0-00-0~-|
P.M. . ..


0:30-0:48
Well it must be difficult, claiming to be the kings and queens
e|----------------------|
B|----------------------|
G|----------------------|
d|-8------10------5-----|
A|-8(x16)-10(x16)-5(x32)|
D|-8------10------5-----|
But it's all, but it's all...
e|----------------------|
B|----------------------|
G|----------------------|
d|-8------10------5-----|
A|-8(x16)-10(x16)-5(x16)|
D|-8------10------5-----|


0:48-0:51
e|-----------|
B|-----------|
G|-----------|
d|--------0~-|
A|-0-0-00-0~-|
D|-0-0-00-0~-|
P.M. . ..

0:51-1:11
This shall pass, megalomania
e|-------------------------------------|
B|-------------------------------------|
G|---------------------------8888-7777-|
d|---------------------------xxxx-xxxx-|
A|---0-8vb-0-0-7-0-0-8vb-0---6666-5555-|
D|---0-----0-0-7-0-0-----0-------------|
P.M. .       .     .                               X2 Both one part
E--------------------------------------------|
B--------------------------------------------|
G|-------------------------12121212-11111111-|
D|-------------------------x-x-x-x--x-x-x-x--|
A|---0-8vb-0-0-7-0-0-8vb-0-10101010-9-9-9-9--|
D|---0-----0-0-7-0-0-----0-------------------|
P.M. .       .     .
1:11-1:19

Stupid Glitchy Computer sounding part

1:14-1:16
e|--------|
B|--------|
G|--------|
d|-0------|
A|-0-(x8)-|
D|-0------|

1:22-1:32

e|------------------------------------|
B|------------------------------------|
G|------------------------------------|
d|------------------------------------|
A|-0~--00~--0~---0~---000-000-000-000-|
D|-0~--00~--0~---0~---000-000-000-000-|
P.M.   ..   .    .    ... ... ... ...

1:32-1:52

e|-------------------------------|
B|-------------------------------|
G|-------------------------------|
d|-------------------------------|
A|-000-000----00-000-000-000-000-|
D|-000-000----00-000-000-000-000-|
P.M... ...    .. ... ... ... ...

1:42-1:52

e|-----------------------------------|
B|-----------------------------------|
G|-7-------9-------12-------15-------|
d|-x-(x16)-x-(x16)-x--(x16)-x--(x16)-|
A|-5-------7-------10-------13-------|
D|-----------------------------------|


1:52-2:14
Im going to hope for you, im going to pray for you

E|--------------------------|
B|--------------------------|
G|--------------------------|
D|-8-------10-------5-------|x2
A|-8-(x16)-10-(x16)-5-(x32)-|
D|-8-------10-------5-------|

Then it gets changed up
2:14-2:35
E|----------------------------------------|
B|----------------------------------------|
G|----------------------------------------|
D|-8-------10-------0-------3-------------|x2
A|-8-(x16)-10-(x16)-0-(x16)-3-(x16)-------|
D|-8-------10-------0-------3-------------|


2:35-2:44
We all find ourselves terribly weak
e|-------------------------------------------------|
B|-------------------------------------------------|
G|-------14------------15------------14------------|
d|-0-0-0-x--(x8)-0-0-0-x--(x8)-0-0-0-x--(x8)-0-0-0-|
A|-0-0-0-12------0-0-0-13------0-0-0-12------0-0-0-|
D|-0-0-0---------0-0-0---------0-0-0---------0-0-0-|

2:44-2:46
I'm pretty sure this is it
e|----------------------------|
B|-11-10----------------------|
G|-------10-9--10-9-----------|
d|------------------8-7-------|
A|----------------------------|
D|----------------------------|

2:46-2:59
Heres an offering
e|-----------------------------------------|
B|-----------------------------------------|
G|-----------------------------------------|
d|----------------------------7h10p7-6h9p6-|
A|-000--000000-0-0-0(x4 then)--------------|
D|-000--000000-0-0-0-----------------------|
P.M...  ...... . . .

3:00-End
Offering.
e|----------------------------------------------------------------------------|
B|----------------------------------------------------------------------------|
G|----------------------------------------------------------------------------|
d|----------------------------------------------------------------------------|
A|-0000-000000-0-0-0-3-2-1-0000-000000-0-0-0----------0000-000000-0-0-0-5-3-2-|
D|-0000-000000-0-0-0-3-2-1-0000-000000-0-0-0-<6or7b^>-0000-000000-0-0-0-5-3-2-|
P.M.... ...... . . . . . . .... ...... . . .      .... ...... . . . . . .

e|----------------------------|
B|----------------------------|
G|----------------------------|
d|----------------------------|
A|-0000-000000-0-0-0-<6or7vb>-|
D|-0000-000000-0-0-0----------|
P.M.... ...... . . .

LYRICS
The concept of fashion is the one to blame:
Painting the portrait of conviction-less existence.
Well, it must be difficult being so gorgeous.
Claiming to be the kings and queens but it's all of nothing.
This shall pass. Megalomania.
congratulations on mutiliation for a life.
i'm going to hope for you, i'm going to pray for you amongst the wreckless and the
salvation lies within. my time is your's my friend.
We all find ourselves so horribly weak.
(Oh God,) here's an offering.

| /  slide up
| \  slide down.
| vb vibrato
| b^ bend up
| h  hammer-on
| p  pull-off
| ~  let ring
| +  harmonic
| <> pinch harmonic
| x  dead note

            
            
Suggest correction
Creating personal tab
Creating personal tab
You can edit any tab online and save it as your Personal.

You can edit, replace or remove any tab part or add personal notes – all changes will be seen only by you.

Personal tabs can be accessed anytime from any device, even offline.
Learn more »
comments
print report bad tab
16 comments total. Showing first comments.
0 reply
The Academy 10 Jul 20, 2007 06:17 PM

pretty good. Almost all of it is right. I saw your video on youtube too, good job

0 reply
rockonmetal83 283 Jul 31, 2007 07:07 AM

your welcome.

0 reply
silverstein8484 10 Aug 11, 2007 03:42 PM

sweet!

guest
Wanna post a correction for this tab? Suggest correction