Oops, an error
Loading. Please wait.

Hey John Whats Your Name Again tab

version 3
version 3

Whole song

Interactive

46,255 views 6 this week
2 commentsread comments
1 2 3 4 5
x 15
add to favorites
×
Save as Personal and add changes to this tab that will be seen only by you. Learn more ›
×
You can save this tab as Personal to edit and correct it or add notes. All changes will be seen only by you. Learn more »
launch autoscroll
font size
0
reset
how to read this tab
guitar tuner
edit
Autoscroll
slow
fast
+/-
esc
set tempo
stop
Gtr1
     W                   W                   W                 
E||-------------------|-------------------|-------------------|
B||-------------------|-------------------|-------------------|
G||-------------------|-------------------|-------------------|
D||--0----------------|--L----------------|--8----------------|
A||--0----------------|--L----------------|--8----------------|
D||--0----------------|--L----------------|--8----------------|


  W                   W                   W                   W                 
-------------------|-------------------|-------------------|-------------------|
-------------------|-------------------|-------------------|-------------------|
-------------------|-------------------|-------------------|-------------------|
--5----------------|--0----------------|--L----------------|--8----------------|
--5----------------|--0----------------|--L----------------|--8----------------|
--5----------------|--0----------------|--L----------------|--8----------------|


                         PM PM PM PM     PM PM PM PM    PM PM  
  W                   E  S  S  S  S   E  S  S  S  S  E  S  S   
-------------------|------------------------------------------|
-------------------|------------------------------------------|
-------------------|------------------------------------------|
--5----------------|------------------------------------------|
--5----------------|--8--------------10--------------8--------|
--5----------------|-----0--0--0--0------0--0--0--0-----0--0--|


     PM PM PM PM    PM PM PM PM     PM PM  
  E  S  S  S  S  E  S  S  S  S   E  S  S   
------------------------------------------|
------------------------------------------|
------------------------------------------|
------------------------------------------|
--7--------------8--------------10--------|
-----0--0--0--0-----0--0--0--0------0--0--|


     PM PM PM PM     PM PM PM PM    PM PM                                
  E  S  S  S  S   E  S  S  S  S  E  S  S     E  S S  E  S S E  E  E  E   
------------------------------------------|-----------------------------|
------------------------------------------|-----------------------------|
------------------------------------------|-----------------------------|
------------------------------------------|--8--7-5-10--8-7----------8--|
--8--------------10--------------8--------|-----------------8--7--8-----|
-----0--0--0--0------0--0--0--0-----0--0--|-----------------------------|


     PM PM PM PM     PM PM PM PM    PM PM  
  E  S  S  S  S   E  S  S  S  S  E  S  S   
------------------------------------------|
------------------------------------------|
------------------------------------------|
------------------------------------------|
--8--------------10--------------8--------|
-----0--0--0--0------0--0--0--0-----0--0--|


     PM PM PM PM    PM PM PM PM     PM PM  
  E  S  S  S  S  E  S  S  S  S   E  S  S   
------------------------------------------|
------------------------------------------|
------------------------------------------|
------------------------------------------|
--7--------------8--------------10--------|
-----0--0--0--0-----0--0--0--0------0--0--|


     PM PM PM PM     PM PM PM PM    PM PM                                
  E  S  S  S  S   E  S  S  S  S  E  S  S     E  S S  E  S S E  E  E  E   
------------------------------------------|-----------------------------|
------------------------------------------|-----------------------------|
------------------------------------------|-----------------------------|
------------------------------------------|--8--7-5-10--8-7----------8--|
--8--------------10--------------8--------|-----------------8--7--8-----|
-----0--0--0--0------0--0--0--0-----0--0--|-----------------------------|


   E   E   E   E   E   E   E   E      E   E   E   E   E   E   E   E   
----------------------------------|----------------------------------|
----------------------------------|----------------------------------|
--10--10--10--10--10--10--10--10--|--10--10--10--10--10--10--10--10--|
---x---x---x---x---x---x---x---x--|---x---x---x---x---x---x---x---x--|
---8---8---8---8---8---8---8---8--|---8---8---8---8---8---8---8---8--|
----------------------------------|----------------------------------|


   E   E   E   E   E   E   E   E      E   E   E   E   E   E   E   E   
----------------------------------|----------------------------------|
----------------------------------|----------------------------------|
--12--12--12--12--12--12--12--12--|--12--12--12--12--12--12--12--12--|
---x---x---x---x---x---x---x---x--|---x---x---x---x---x---x---x---x--|
--10--10--10--10--10--10--10--10--|--10--10--10--10--10--10--10--10--|
----------------------------------|----------------------------------|


  E  E  E  E  E  E  E  E     E  E  E  E  E  E  E  E   
--------------------------|--------------------------|
--------------------------|--------------------------|
--9--9--9--9--9--9--9--9--|--9--9--9--9--9--9--9--9--|
--x--x--x--x--x--x--x--x--|--x--x--x--x--x--x--x--x--|
--7--7--7--7--7--7--7--7--|--7--7--7--7--7--7--7--7--|
--------------------------|--------------------------|


         PM    PM    PM PM                      
  Q.     E  E  E  E  S  S     W                 
---------------------------|-------------------|
---------------------------|-------------------|
---------------------------|-------------------|
--0------------------------|--0----------------|
--0------0-----0-----0--0--|--0----------------|
--0------0-----0-----0--0--|--0----------------|


   E   E   E   E   E   E   E   E      E   E   E   E   E   E   E   E   
----------------------------------|----------------------------------|
----------------------------------|----------------------------------|
--10--10--10--10--10--10--10--10--|--10--10--10--10--10--10--10--10--|
---x---x---x---x---x---x---x---x--|---x---x---x---x---x---x---x---x--|
---8---8---8---8---8---8---8---8--|---8---8---8---8---8---8---8---8--|
----------------------------------|----------------------------------|


  E  E  E  E  E  E  E  E     E  E  E  E  E  E  E  E   
--------------------------|--------------------------|
--------------------------|--------------------------|
--9--9--9--9--9--9--9--9--|--9--9--9--9--9--9--9--9--|
--x--x--x--x--x--x--x--x--|--x--x--x--x--x--x--x--x--|
--7--7--7--7--7--7--7--7--|--7--7--7--7--7--7--7--7--|
--------------------------|--------------------------|


  E  E  E  E  E  E  E  E     E  E  E  E  E  E  E  E   
--------------------------|--------------------------|
--------------------------|--------------------------|
--7--7--7--7--7--7--7--7--|--7--7--7--7--7--7--7--7--|
--x--x--x--x--x--x--x--x--|--x--x--x--x--x--x--x--x--|
--5--5--5--5--5--5--5--5--|--5--5--5--5--5--5--5--5--|
--------------------------|--------------------------|


   E   E   E   E  E  E  E  E     E  E  E  E  E  E  E  E   
------------------------------|--------------------------|
------------------------------|--------------------------|
--10--10--10--10--9--9--9--9--|--7--7--7--7--5--5--5--5--|
---x---x---x---x--x--x--x--x--|--x--x--x--x--x--x--x--x--|
---8---8---8---8--7--7--7--7--|--5--5--5--5--3--3--3--3--|
------------------------------|--------------------------|


   E   E   E   E   E   E   E   E      E   E   E   E   E   E   E   E   
----------------------------------|----------------------------------|
----------------------------------|----------------------------------|
--10--10--10--10--10--10--10--10--|--10--10--10--10--10--10--10--10--|
---x---x---x---x---x---x---x---x--|---x---x---x---x---x---x---x---x--|
---8---8---8---8---8---8---8---8--|---8---8---8---8---8---8---8---8--|
----------------------------------|----------------------------------|


   E   E   E   E   E   E   E   E      E   E   E   E   E   E   E   E   
----------------------------------|----------------------------------|
----------------------------------|----------------------------------|
--12--12--12--12--12--12--12--12--|--12--12--12--12--12--12--12--12--|
---x---x---x---x---x---x---x---x--|---x---x---x---x---x---x---x---x--|
--10--10--10--10--10--10--10--10--|--10--10--10--10--10--10--10--10--|
----------------------------------|----------------------------------|


   E   E   E   E   E   E   E   E      E   E   E   E   E   E   E   E   
----------------------------------|----------------------------------|
----------------------------------|----------------------------------|
--14--14--14--14--14--14--14--14--|--14--14--14--14--14--14--14--14--|
---x---x---x---x---x---x---x---x--|---x---x---x---x---x---x---x---x--|
--12--12--12--12--12--12--12--12--|--12--12--12--12--12--12--12--12--|
----------------------------------|----------------------------------|


         PM    PM    PM PM                                              
  Q.     E  E  E  E  S  S     W                   Q    E  Q.      Q     
---------------------------|-------------------|-----------------------|
---------------------------|-------------------|-----------------------|
---------------------------|-------------------|-----------------------|
--0------------------------|--0----------------|----------8~-----------|
--0------0-----0-----0--0--|--0----------------|--0---------------5----|
--0------0-----0-----0--0--|--0----------------|--0--------------------|


  Q    E  Q       E    Q       Q    E  Q.      Q       E  E  E  E  E  E  E  E   
----------------------------|-----------------------|--------------------------|
----------------------------|-----------------------|--------------------------|
----------------------------|-----------------------|--8--8--8-----7--7--7--7--|
----------7~----------------|----------8~-----------|--x--x--x-----x--x--x--x--|
--8-------------(12)S--1----|--0---------------5----|--6--6--6-----5--5--5--5--|
--8-------------------------|--0--------------------|-----------0--------------|


  Q    E  Q.      Q       Q    E  Q       E    Q       Q    E  Q.      Q     
-----------------------|----------------------------|-----------------------|
-----------------------|----------------------------|-----------------------|
-----------------------|----------------------------|-----------------------|
----------8~-----------|----------7~----------------|----------8~-----------|
--0---------------5----|--8-------------(12)S--1----|--0---------------5----|
--0--------------------|--8-------------------------|--0--------------------|


  E  E  E  E  E  E  E  E     Q    E  Q.      Q       Q    E  Q       E    Q     
--------------------------|-----------------------|----------------------------|
--------------------------|-----------------------|----------------------------|
--8--8--8--8--7--7--7--7--|-----------------------|----------------------------|
--x--x--x--x--x--x--x--x--|----------8~-----------|----------7~----------------|
--6--6--6--6--5--5--5--5--|--0---------------5----|--8-------------(12)S--1----|
--------------------------|--0--------------------|--8-------------------------|


  Q    E  Q.      Q       E  E  E  E  E  E  E  E     Q    E  Q.      Q     
-----------------------|--------------------------|-----------------------|
-----------------------|--------------------------|-----------------------|
-----------------------|--8--8--8--8--7--7--7--7--|-----------------------|
----------8~-----------|--x--x--x--x--x--x--x--x--|----------8~-----------|
--0---------------5----|--6--6--6--6--5--5--5--5--|--0---------------5----|
--0--------------------|--------------------------|--0--------------------|


  Q    E  Q       E    Q       Q    E  Q.      Q       E  E  E  E  E  E  E  E   
----------------------------|-----------------------|--------------------------|
----------------------------|-----------------------|--------------------------|
----------------------------|-----------------------|--8--8--8--8--7--7--7--7--|
----------7~----------------|----------8~-----------|--x--x--x--x--x--x--x--x--|
--8-------------(12)S--1----|--0---------------5----|--6--6--6--6--5--5--5--5--|
--8-------------------------|--0--------------------|--------------------------|


              W                   W                   W                 
-----|-----|-------------------|-------------------|--0----------------|
-----|-----|-------------------|-------------------|--0----------------|
-----|-----|-------------------|-------------------|--0----------------|
-----|-----|--0----------------|--L----------------|--0----------------|
-----|-----|--0----------------|--L----------------|--0----------------|
-----|-----|--0----------------|--L----------------|--0----------------|


  W                                                         
--L----------------|-------------------|-------------------|
--L----------------|-------------------|-------------------|
--L----------------|-------------------|-------------------|
--L----------------|-------------------|-------------------|
--L----------------|-------------------|-------------------|
--L----------------|-------------------|-------------------|


  PM           PM      PM                  PM           PM    
  H.           Q       W                   H.           Q     
--------------------|-------------------|--------------------|
--------------------|-------------------|--------------------|
--------------------|-------------------|--------------------|
--------------------|-------------------|--------------------|
--0------------0----|--0----------------|--0------------0----|
--0------------0----|--0----------------|--0------------0----|


                             PM           PM      PM                
  E  E  E  E  E  E  E  E     H.           Q       W                 
--------------------------|--------------------|-------------------|
--------------------------|--------------------|-------------------|
--------------------------|--------------------|-------------------|
--0-----0-----0-----0-----|--------------------|-------------------|
--0-----0-----0-----0-----|--0------------0----|--0----------------|
--0-----0-----0-----0-----|--0------------0----|--0----------------|


  PM           PM                                                  PM PM PM PM  
  H.           Q       E  E  E  E  E  E  E  E     E  E  E  E  Q    S  S  S  S   
--------------------|--------------------------|-------------------------------|
--------------------|--------------------------|-------------------------------|
--------------------|--------------------------|-------------------------------|
--------------------|--0-----0-----0-----0-----|--0-----0----------------------|
--0------------0----|--0-----0-----0-----0-----|--0-----0----------0--0--0--0--|
--0------------0----|--0-----0-----0-----0-----|--0-----0----------0--0--0--0--|


                                              PM PM PM PM  
  E  E  E  E  E  E  E  E     E  E  E  E  Q    S  S  S  S   
--------------------------|-------------------------------|
--------------------------|-------------------------------|
--------------------------|-------------------------------|
--0-----0-----0-----0-----|--0-----0----------------------|
--0-----0-----0-----0-----|--0-----0----------0--0--0--0--|
--0-----0-----0-----0-----|--0-----0----------0--0--0--0--|


                                              PM PM PM PM  
  E  E  E  E  E  E  E  E     E  E  E  E  Q    S  S  S  S   
--------------------------|-------------------------------|
--------------------------|-------------------------------|
--------------------------|-------------------------------|
--0-----0-----0-----0-----|--0-----0----------------------|
--0-----0-----0-----0-----|--0-----0----------0--0--0--0--|
--0-----0-----0-----0-----|--0-----0----------0--0--0--0--|


                                              PM PM PM PM  
  E  E  E  E  E  E  E  E     E  E  E  E  Q    S  S  S  S   
--------------------------|-------------------------------|
--------------------------|-------------------------------|
--------------------------|-------------------------------|
--0-----0-----0-----0-----|--0-----0----------------------|
--0-----0-----0-----0-----|--0-----0----------0--0--0--0--|
--0-----0-----0-----0-----|--0-----0----------0--0--0--0--|


  E  E  E  E  E  E  E  E     E  E  E  E  E  E  E  E   
--------------------------|--------------------------|
--------------------------|--------------------------|
--------------------------|--7--7--7--7--7--7--7--7--|
--0-----0-----0-----0-----|--x--x--x--x--x--x--x--x--|
--0-----0-----0-----0-----|--5--5--5--5--5--5--5--5--|
--0-----0-----0-----0-----|--------------------------|


  E  E  E  E  E  E  E  E     E  E  E  E  E  E  E  E   
--------------------------|--------------------------|
--------------------------|--------------------------|
--7--7--7--7--7--7--7--7--|--9--9--9--9--9--9--9--9--|
--x--x--x--x--x--x--x--x--|--x--x--x--x--x--x--x--x--|
--5--5--5--5--5--5--5--5--|--7--7--7--7--7--7--7--7--|
--------------------------|--------------------------|


  E  E  E  E  E  E  E  E      E   E   E   E   E   E   E   E   
--------------------------|----------------------------------|
--------------------------|----------------------------------|
--9--9--9--9--9--9--9--9--|--12--12--12--12--12--12--12--12--|
--x--x--x--x--x--x--x--x--|---x---x---x---x---x---x---x---x--|
--7--7--7--7--7--7--7--7--|--10--10--10--10--10--10--10--10--|
--------------------------|----------------------------------|


   E   E   E   E   E   E   E   E      E   E   E   E   E   E   E   E   
----------------------------------|----------------------------------|
----------------------------------|----------------------------------|
--12--12--12--12--12--12--12--12--|--15--15--15--15--15--15--15--15--|
---x---x---x---x---x---x---x---x--|---x---x---x---x---x---x---x---x--|
--10--10--10--10--10--10--10--10--|--13--13--13--13--13--13--13--13--|
----------------------------------|----------------------------------|


   E   E   E   E   E   E   E   E      E   E   E   E   E   E   E   E   
----------------------------------|----------------------------------|
----------------------------------|----------------------------------|
--15--15--15--15--15--15--15--15--|--10--10--10--10--10--10--10--10--|
---x---x---x---x---x---x---x---x--|---x---x---x---x---x---x---x---x--|
--13--13--13--13--13--13--13--13--|---8---8---8---8---8---8---8---8--|
----------------------------------|----------------------------------|


   E   E   E   E   E   E   E   E     E  E  E  E  E  E  E  E   
----------------------------------|--------------------------|
----------------------------------|--------------------------|
--10--10--10--10--10--10--10--10--|--9--9--9--9--9--9--9--9--|
---x---x---x---x---x---x---x---x--|--x--x--x--x--x--x--x--x--|
---8---8---8---8---8---8---8---8--|--7--7--7--7--7--7--7--7--|
----------------------------------|--------------------------|


  E  E  E  E  E  E  E  E     E  E  E  E  E  E  E  E   
--------------------------|--------------------------|
--------------------------|--------------------------|
--9--9--9--9--9--9--9--9--|--7--7--7--7--7--7--7--7--|
--x--x--x--x--x--x--x--x--|--x--x--x--x--x--x--x--x--|
--7--7--7--7--7--7--7--7--|--5--5--5--5--5--5--5--5--|
--------------------------|--------------------------|


  E  E  E  E  E  E  E  E     E  E  E  E  E  E  E  E   
--------------------------|--------------------------|
--------------------------|--------------------------|
--7--7--7--7--7--7--7--7--|--7--7--7--7--7--7--7--7--|
--x--x--x--x--x--x--x--x--|--x--x--x--x--x--x--x--x--|
--5--5--5--5--5--5--5--5--|--5--5--5--5--5--5--5--5--|
--------------------------|--------------------------|


   E   E   E   E   E   E   E   E      E   E   E   E   E   E   E   E   
----------------------------------|----------------------------------|
----------------------------------|----------------------------------|
--10--10--10--10--10--10--10--10--|--10--10--10--10--10--10--10--10--|
---x---x---x---x---x---x---x---x--|---x---x---x---x---x---x---x---x--|
---8---8---8---8---8---8---8---8--|---8---8---8---8---8---8---8---8--|
----------------------------------|----------------------------------|


   E   E   E   E   E   E   E   E     E  E  E  E  E  E  E  E   
----------------------------------|--------------------------|
----------------------------------|--------------------------|
--12--12--12--12--14--14--14--14--|--9--9--9--9--9--9--9--9--|
---x---x---x---x---x---x---x---x--|--x--x--x--x--x--x--x--x--|
--10--10--10--10--12--12--12--12--|--7--7--7--7--7--7--7--7--|
----------------------------------|--------------------------|


   E   E   E   E   E   E   E   E     E  E  E  E  E  E  E  E   
----------------------------------|--------------------------|
----------------------------------|--------------------------|
--10--10--10--10--12--12--12--12--|--7--7--7--7--7--7--7--7--|
---x---x---x---x---x---x---x---x--|--x--x--x--x--x--x--x--x--|
---8---8---8---8--10--10--10--10--|--5--5--5--5--5--5--5--5--|
----------------------------------|--------------------------|


  E  E  E  E   E   E   E   E      E   E   E   E   E   E   E   E   
------------------------------|----------------------------------|
------------------------------|----------------------------------|
--9--9--9--9--10--10--10--10--|--17--17--17--17--17--17--17--17--|
--x--x--x--x---x---x---x---x--|---x---x---x---x---x---x---x---x--|
--7--7--7--7---8---8---8---8--|--15--15--15--15--15--15--15--15--|
------------------------------|----------------------------------|


   E   E   E   E   E   E   E   E      E   E   E   E   E   E   E   E   
----------------------------------|----------------------------------|
----------------------------------|----------------------------------|
--17--17--17--17--17--17--17--17--|--10--10--10--10--10--10--10--10--|
---x---x---x---x---x---x---x---x--|---x---x---x---x---x---x---x---x--|
--15--15--15--15--15--15--15--15--|---8---8---8---8---8---8---8---8--|
----------------------------------|----------------------------------|


   E   E   E   E   E   E   E   E     E  E  E  E  E  E  E  E   
----------------------------------|--------------------------|
----------------------------------|--------------------------|
--10--10--10--10--10--10--10--10--|--9--9--9--9--9--9--9--9--|
---x---x---x---x---x---x---x---x--|--x--x--x--x--x--x--x--x--|
---8---8---8---8---8---8---8---8--|--7--7--7--7--7--7--7--7--|
----------------------------------|--------------------------|


  E  E  E  E  E  E  E  E     E  E  E  E  E  E  E  E   
--------------------------|--------------------------|
--------------------------|--------------------------|
--9--9--9--9--9--9--9--9--|--7--7--7--7--7--7--7--7--|
--x--x--x--x--x--x--x--x--|--x--x--x--x--x--x--x--x--|
--7--7--7--7--7--7--7--7--|--5--5--5--5--5--5--5--5--|
--------------------------|--------------------------|


  E  E  E  E   E   E   E   E      E   E   E   E   E   E   E   E   
------------------------------|----------------------------------|
------------------------------|----------------------------------|
--9--9--9--9--10--10--10--10--|--17--17--17--17--17--17--17--17--|
--x--x--x--x---x---x---x---x--|---x---x---x---x---x---x---x---x--|
--7--7--7--7---8---8---8---8--|--15--15--15--15--15--15--15--15--|
------------------------------|----------------------------------|


   E   E   E   E   E   E   E   E      E   E   E   E   E   E   E   E   
----------------------------------|----------------------------------|
----------------------------------|----------------------------------|
--17--17--17--17--17--17--17--17--|--10--10--10--10--10--10--10--10--|
---x---x---x---x---x---x---x---x--|---x---x---x---x---x---x---x---x--|
--15--15--15--15--15--15--15--15--|---8---8---8---8---8---8---8---8--|
----------------------------------|----------------------------------|


   E   E   E   E   E   E   E   E     E  E  E  E  E  E  E  E   
----------------------------------|--------------------------|
----------------------------------|--------------------------|
--12--12--12--12--14--14--14--14--|--9--9--9--9--9--9--9--9--|
---x---x---x---x---x---x---x---x--|--x--x--x--x--x--x--x--x--|
--10--10--10--10--12--12--12--12--|--7--7--7--7--7--7--7--7--|
----------------------------------|--------------------------|


   E   E   E   E   E   E   E   E     E  E  E  E  E  E  E  E   
----------------------------------|--------------------------|
----------------------------------|--------------------------|
--10--10--10--10--12--12--12--12--|--7--7--7--7--7--7--7--7--|
---x---x---x---x---x---x---x---x--|--x--x--x--x--x--x--x--x--|
---8---8---8---8--10--10--10--10--|--5--5--5--5--5--5--5--5--|
----------------------------------|--------------------------|


  E  E  E  E   E   E   E   E      E   E   E   E   E   E   E   E   
------------------------------|----------------------------------|
------------------------------|----------------------------------|
--9--9--9--9--10--10--10--10--|--17--17--17--17--17--17--17--17--|
--x--x--x--x---x---x---x---x--|---x---x---x---x---x---x---x---x--|
--7--7--7--7---8---8---8---8--|--15--15--15--15--15--15--15--15--|
------------------------------|----------------------------------|


   E   E   E   E   E   E   E   E     Q.     Q.     Q     
----------------------------------|---------------------|
----------------------------------|---------------------|
--17--17--17--17--17--17--17--17--|---------------------|
---x---x---x---x---x---x---x---x--|--0------0------0----|
--15--15--15--15--15--15--15--15--|--0------0------0----|
----------------------------------|--0------0------0----|


   E   E   E   E   E   E   E   E     Q.     Q.     Q     
----------------------------------|---------------------|
----------------------------------|---------------------|
--14--14--14--14--14--14--14--14--|---------------------|
---x---x---x---x---x---x---x---x--|--0------0------0----|
--12--12--12--12--12--12--12--12--|--0------0------0----|
----------------------------------|--0------0------0----|


   E   E   E   E   E   E   E   E     Q.     Q.     Q     
----------------------------------|---------------------|
----------------------------------|---------------------|
--15--15--15--15--15--15--15--15--|---------------------|
---x---x---x---x---x---x---x---x--|--0------0------0----|
--13--13--13--13--13--13--13--13--|--0------0------0----|
----------------------------------|--0------0------0----|


   E   E   E   E   E   E   E   E     Q.     Q.     Q     
----------------------------------|---------------------|
----------------------------------|---------------------|
--14--14--14--14--14--14--14--14--|---------------------|
---x---x---x---x---x---x---x---x--|--0------0------0----|
--12--12--12--12--12--12--12--12--|--0------0------0----|
----------------------------------|--0------0------0----|


                                 PM PM PM         PM PM PM PM  
   E   E   E  E   E  E  E  E     S  S  E  E  Q    S  S  E  E   
------------------------------|-------------------------------|
--11--10----------------------|-------------------------------|
----------10--9---------------|-------------------------------|
-----------------10--9--------|-------------------------------|
------------------------8--7--|--0--0--0----------0--0--0--0--|
------------------------------|--0--0--0----------0--0--0--0--|


  PM  PM  PM PM            PM PM PM         PM PM PM PM  
  E.  E.  E  E  E  Q       S  S  E  E  Q    S  S  E  E   
------------------------|-------------------------------|
------------------------|-------------------------------|
------------------------|-------------------------------|
------------------------|-------------------------------|
--0---0---0--0----------|--0--0--0----------0--0--0--0--|
--0---0---0--0----------|--0--0--0----------0--0--0--0--|


  PM  PM  PM PM            PM PM PM         PM PM PM PM  
  E.  E.  E  E  E  Q       S  S  E  E  Q    S  S  E  E   
------------------------|-------------------------------|
------------------------|-------------------------------|
------------------------|-------------------------------|
------------------------|-------------------------------|
--0---0---0--0----------|--0--0--0----------0--0--0--0--|
--0---0---0--0----------|--0--0--0----------0--0--0--0--|


  PM  PM  PM PM            PM PM PM         PM PM PM PM  
  E.  E.  E  E  E  Q       S  S  E  E  Q    S  S  E  E   
------------------------|-------------------------------|
------------------------|-------------------------------|
------------------------|-------------------------------|
------------------------|-------------------------------|
--0---0---0--0----------|--0--0--0----------0--0--0--0--|
--0---0---0--0----------|--0--0--0----------0--0--0--0--|


  PM  PM  PM                                                        PM  PM  PM  
  E.  E.  E  S S E  S S E     S S E  Q.     S S E  E     E.  E.  E  E.  E.  E   
---------------------------|--------------------------|------------------------|
---------------------------|--------------------------|------------------------|
---------------2-----------|--------------------------|------------------------|
-------------3---3--2-5-2--|--------------------------|------------------------|
--0---0---0----------------|--0-0-0--L------0-0-0--0--|--0---0---0--3---2---1--|
--0---0---0----------------|--0-0-0--L------0-0-0--0--|--0---0---0--3---2---1--|


                                          PH                                    
  S S E  Q.     S S E  E     E.  E.  E    H            S S E  Q.     S S E  E   
--------------------------|-------------------------|--------------------------|
--------------------------|-------------------------|--------------------------|
--------------------------|-------------------------|--------------------------|
--------------------------|-------------------------|--------------------------|
--0-0-0--L------0-0-0--0--|--0---0---0--<>5b--------|--0-0-0--L------0-0-0--0--|
--0-0-0--L------0-0-0--0--|--0---0---0--------------|--0-0-0--L------0-0-0--0--|


             PM  PM  PM                                             PH    W     
  E.  E.  E  E.  E.  E     S S E  Q.     S S E  E     E.  E.  E     Q     Q     
------------------------|--------------------------|---------------------------|
------------------------|--------------------------|---------------------------|
------------------------|--------------------------|---------------------------|
------------------------|--------------------------|-------------<>12~----L----|
--0---0---0--3---2---1--|--0-0-0--L------0-0-0--0--|--0---0---0----------------|
--0---0---0--3---2---1--|--0-0-0--L------0-0-0--0--|--0---0---0----------------|


  W                   W                   W                 
-------------------|-------------------|-------------------|
-------------------|-------------------|-------------------|
-------------------|-------------------|-------------------|
--0----------------|--L----------------|--L----------------|
--0----------------|--L----------------|--L----------------|
--0----------------|--L----------------|--L----------------|


  W                  
-------------------||
-------------------||
-------------------||
--L----------------||
--L----------------||
--L----------------||




Duration Legend
---------------
W - whole
H - half
Q - quarter
E - 8th
S - 16th
T - 32nd
X - 64th
. - note dotted
|-n-|  - n-tuplets


Tablature Legend
----------------
L - tied note
x - dead note
g - grace note
(n) - ghost note
> - accentuded note
NH - natural harmonic
AH - artificial harmonic
TH - tapped harmonic
SH - semi harmonic
PH - pitch harmonic
h - hammer on
p - pull off
b - bend
br - bendRelease
pb - preBend
pbr - preBendRelease
brb - bendReleaseBend
\n/ - tremolo bar dip
\n - tremolo bar dive
-/n - tremolo bar Release up
/n\ - tremolo bar inverted dip
/n - tremolo bar return
-\n - tremolo bar Release down
S - shift slide
s - legato slide
/ -  slide into from below or out of upwards
\ -  slide into from above or out of downwards
~ - vibrato
W - wide vibrato
tr - trill
TP - tremolo picking
T - tapping
S - slap
P - pop
< - fade in
^ - brush up
v - brush down

            
            
Suggest correction
Creating personal tab
Creating personal tab
You can edit any tab online and save it as your Personal.

You can edit, replace or remove any tab part or add personal notes – all changes will be seen only by you.

Personal tabs can be accessed anytime from any device, even offline.
Learn more »
comments
print report bad tab
2 comments total.
0 reply
SIeepy 64 Apr 28, 2008 06:26 PM

PERFECT!!!

+1 reply
SoggyNoodles 10 Jun 18, 2008 03:59 PM

noice

guest
Wanna post a correction for this tab? Suggest correction